ISO-10303-21;
HEADER;
FILE_DESCRIPTION (( 'STEP AP203' ),
    '1' );
FILE_NAME ('35247.step',
    '2021-11-01T09:16:04',
    ( '' ),
    ( '' ),
    'SwSTEP 2.0',
    'SolidWorks 2019',
    '' );
FILE_SCHEMA (( 'CONFIG_CONTROL_DESIGN' ));
ENDSEC;

DATA;
#1 = AXIS2_PLACEMENT_3D ( 'NONE', #22, #41, #120 ) ;
#2 = EDGE_LOOP ( 'NONE', ( #205 ) ) ;
#3 = DIRECTION ( 'NONE',  ( 0.0000000000000000000, -1.000000000000000000, 0.0000000000000000000 ) ) ;
#4 =( NAMED_UNIT ( * ) PLANE_ANGLE_UNIT ( ) SI_UNIT ( $, .RADIAN. ) );
#5 = AXIS2_PLACEMENT_3D ( 'NONE', #159, #209, #200 ) ;
#6 = DIRECTION ( 'NONE',  ( 3.491481338843133355E-15, -1.224646799147353207E-16, 1.000000000000000000 ) ) ;
#7 = EDGE_CURVE ( 'NONE', #63, #63, #215, .T. ) ;
#8 = FACE_BOUND ( 'NONE', #148, .T. ) ;
#9 = DIRECTION ( 'NONE',  ( 3.491481338843133355E-15, -1.219242935835426903E-16, 1.000000000000000000 ) ) ;
#10 = CARTESIAN_POINT ( 'NONE',  ( -3.247552150623218153E-30, -0.5500000000000001554, -9.301359037763786325E-16 ) ) ;
#11 = PERSON_AND_ORGANIZATION_ROLE ( 'design_owner' ) ;
#12 = AXIS2_PLACEMENT_3D ( 'NONE', #228, #158, #80 ) ;
#13 = DATE_AND_TIME ( #101, #65 ) ;
#14 = COORDINATED_UNIVERSAL_TIME_OFFSET ( 1, 0, .AHEAD. ) ;
#15 = ORIENTED_EDGE ( 'NONE', *, *, #157, .F. ) ;
#16 = ADVANCED_FACE ( 'NONE', ( #191 ), #93, .F. ) ;
#17 = EDGE_LOOP ( 'NONE', ( #226 ) ) ;
#18 = ORIENTED_EDGE ( 'NONE', *, *, #62, .T. ) ;
#19 = PRODUCT ( '35247', '35247', '', ( #85 ) ) ;
#20 = APPROVAL ( #29, 'UNSPECIFIED' ) ;
#21 = ORIENTED_EDGE ( 'NONE', *, *, #62, .F. ) ;
#22 = CARTESIAN_POINT ( 'NONE',  ( 9.488582677680149762E-15, -3.313461043639761733E-16, 2.717638090205028778 ) ) ;
#23 = AXIS2_PLACEMENT_3D ( 'NONE', #56, #134, #169 ) ;
#24 = ADVANCED_FACE ( 'NONE', ( #130, #74 ), #154, .T. ) ;
#25 = FACE_OUTER_BOUND ( 'NONE', #189, .T. ) ;
#26 = VERTEX_POINT ( 'NONE', #10 ) ;
#27 = DIRECTION ( 'NONE',  ( 0.0000000000000000000, -1.000000000000000000, 0.0000000000000000000 ) ) ;
#28 = AXIS2_PLACEMENT_3D ( 'NONE', #138, #40, #43 ) ;
#29 = APPROVAL_STATUS ( 'not_yet_approved' ) ;
#30 = SECURITY_CLASSIFICATION_LEVEL ( 'unclassified' ) ;
#31 = CALENDAR_DATE ( 2021, 1, 11 ) ;
#32 = TOROIDAL_SURFACE ( 'NONE', #125, 2.550000000000000711, 2.000000000000000000 ) ;
#33 = APPROVAL_ROLE ( '' ) ;
#34 = ADVANCED_FACE ( 'NONE', ( #243 ), #223, .F. ) ;
#35 = EDGE_LOOP ( 'NONE', ( #131 ) ) ;
#36 = ORIENTED_EDGE ( 'NONE', *, *, #182, .F. ) ;
#37 = CARTESIAN_POINT ( 'NONE',  ( 7.681258945454893382E-15, -2.682334458837938989E-16, 2.199999999999999734 ) ) ;
#38 = ORIENTED_EDGE ( 'NONE', *, *, #77, .T. ) ;
#39 =( LENGTH_UNIT ( ) NAMED_UNIT ( * ) SI_UNIT ( .MILLI., .METRE. ) );
#40 = DIRECTION ( 'NONE',  ( -3.491481338843133355E-15, 1.219242935835426903E-16, -1.000000000000000000 ) ) ;
#41 = DIRECTION ( 'NONE',  ( 3.491481338843133355E-15, -1.219242935835426903E-16, 1.000000000000000000 ) ) ;
#42 = APPROVAL_PERSON_ORGANIZATION ( #127, #45, #48 ) ;
#43 = DIRECTION ( 'NONE',  ( 0.0000000000000000000, -1.000000000000000000, 0.0000000000000000000 ) ) ;
#44 = DIRECTION ( 'NONE',  ( 3.491481338843133355E-15, -1.219242935835426903E-16, 1.000000000000000000 ) ) ;
#45 = APPROVAL ( #88, 'UNSPECIFIED' ) ;
#46 = DATE_AND_TIME ( #187, #53 ) ;
#47 = CONICAL_SURFACE ( 'NONE', #142, 2.499999999999994671, 0.2617993877991429130 ) ;
#48 = APPROVAL_ROLE ( '' ) ;
#49 = CALENDAR_DATE ( 2021, 1, 11 ) ;
#50 = CC_DESIGN_DATE_AND_TIME_ASSIGNMENT ( #102, #236, ( #173 ) ) ;
#51 = CIRCLE ( 'NONE', #192, 1.199999999999995515 ) ;
#52 = DIRECTION ( 'NONE',  ( 0.0000000000000000000, 1.000000000000000000, 0.0000000000000000000 ) ) ;
#53 = LOCAL_TIME ( 10, 16, 4.000000000000000000, #164 ) ;
#54 = CARTESIAN_POINT ( 'NONE',  ( 1.326762908760390423E-13, -4.653657836759941941E-15, 38.00000000000000000 ) ) ;
#55 = EDGE_LOOP ( 'NONE', ( #172 ) ) ;
#56 = CARTESIAN_POINT ( 'NONE',  ( 0.0000000000000000000, 0.0000000000000000000, 0.0000000000000000000 ) ) ;
#57 = VERTEX_POINT ( 'NONE', #210 ) ;
#58 = FACE_OUTER_BOUND ( 'NONE', #35, .T. ) ;
#59 = FACE_OUTER_BOUND ( 'NONE', #55, .T. ) ;
#60 = PLANE ( 'NONE',  #12 ) ;
#61 = CC_DESIGN_APPROVAL ( #110, ( #173 ) ) ;
#62 = EDGE_CURVE ( 'NONE', #26, #26, #136, .T. ) ;
#63 = VERTEX_POINT ( 'NONE', #160 ) ;
#64 = CC_DESIGN_PERSON_AND_ORGANIZATION_ASSIGNMENT ( #67, #202, ( #166 ) ) ;
#65 = LOCAL_TIME ( 10, 16, 4.000000000000000000, #122 ) ;
#66 = MANIFOLD_SOLID_BREP ( 'Corps-Déplacer/Copier1[2]', #199 ) ;
#67 = PERSON_AND_ORGANIZATION ( #234, #95 ) ;
#68 = COORDINATED_UNIVERSAL_TIME_OFFSET ( 1, 0, .AHEAD. ) ;
#69 = APPROVAL_STATUS ( 'not_yet_approved' ) ;
#70 = LOCAL_TIME ( 10, 16, 4.000000000000000000, #68 ) ;
#71 = DIRECTION ( 'NONE',  ( 3.491481338843133355E-15, -1.224646799147353207E-16, 1.000000000000000000 ) ) ;
#72 = CARTESIAN_POINT ( 'NONE',  ( -3.013419132934004063E-30, 1.052301196534097336E-31, -8.630775423054299853E-16 ) ) ;
#73 = APPROVAL_PERSON_ORGANIZATION ( #201, #20, #220 ) ;
#74 = FACE_OUTER_BOUND ( 'NONE', #153, .T. ) ;
#75 = DIRECTION ( 'NONE',  ( -3.491481338843133355E-15, 1.224646799147353207E-16, -1.000000000000000000 ) ) ;
#76 = DIRECTION ( 'NONE',  ( -4.256963957985708889E-31, -1.000000000000000000, -1.219242935835426903E-16 ) ) ;
#77 = EDGE_CURVE ( 'NONE', #183, #183, #51, .T. ) ;
#78 = CARTESIAN_POINT ( 'NONE',  ( 7.681258945454894959E-15, 1.124819836996386637E-32, 2.200000000000000178 ) ) ;
#79 = EDGE_CURVE ( 'NONE', #57, #57, #82, .T. ) ;
#80 = DIRECTION ( 'NONE',  ( -4.275831445896958607E-31, -1.000000000000000000, -1.224646799147353207E-16 ) ) ;
#81 = CC_DESIGN_PERSON_AND_ORGANIZATION_ASSIGNMENT ( #222, #238, ( #224 ) ) ;
#82 = CIRCLE ( 'NONE', #221, 0.5499999999999999334 ) ;
#83 = VERTEX_POINT ( 'NONE', #137 ) ;
#84 = APPROVAL_DATE_TIME ( #46, #110 ) ;
#85 = MECHANICAL_CONTEXT ( 'NONE', #133, 'mechanical' ) ;
#86 = AXIS2_PLACEMENT_3D ( 'NONE', #206, #193, #175 ) ;
#87 = PRODUCT_DEFINITION_SHAPE ( 'NONE', 'NONE',  #173 ) ;
#88 = APPROVAL_STATUS ( 'not_yet_approved' ) ;
#89 = CLOSED_SHELL ( 'NONE', ( #24, #132, #34, #180, #177, #135 ) ) ;
#90 = ORIENTED_EDGE ( 'NONE', *, *, #79, .T. ) ;
#91 = DIRECTION ( 'NONE',  ( -4.275831445896958607E-31, -1.000000000000000000, -1.224646799147353207E-16 ) ) ;
#92 = EDGE_LOOP ( 'NONE', ( #190 ) ) ;
#93 = PLANE ( 'NONE',  #237 ) ;
#94 = EDGE_LOOP ( 'NONE', ( #90 ) ) ;
#95 = ORGANIZATION ( 'UNSPECIFIED', 'UNSPECIFIED', '' ) ;
#96 = CYLINDRICAL_SURFACE ( 'NONE', #204, 0.5500000000000000444 ) ;
#97 = DIRECTION ( 'NONE',  ( 0.0000000000000000000, 1.000000000000000000, 0.0000000000000000000 ) ) ;
#98 = CARTESIAN_POINT ( 'NONE',  ( 1.326762908760390423E-13, 1.199999999999991074, 38.00000000000000000 ) ) ;
#99 = CARTESIAN_POINT ( 'NONE',  ( 1.316288464743861212E-13, -4.616918432785521081E-15, 37.69999999999999574 ) ) ;
#100 = DATE_TIME_ROLE ( 'classification_date' ) ;
#101 = CALENDAR_DATE ( 2021, 1, 11 ) ;
#102 = DATE_AND_TIME ( #31, #151 ) ;
#103 = CC_DESIGN_APPROVAL ( #20, ( #224 ) ) ;
#104 = DIRECTION ( 'NONE',  ( 1.000000000000000000, 0.0000000000000000000, 0.0000000000000000000 ) ) ;
#105 = APPLICATION_PROTOCOL_DEFINITION ( 'international standard', 'config_control_design', 1994, #161 ) ;
#106 = AXIS2_PLACEMENT_3D ( 'NONE', #37, #242, #3 ) ;
#107 = AXIS2_PLACEMENT_3D ( 'NONE', #99, #196, #97 ) ;
#108 = EDGE_LOOP ( 'NONE', ( #128 ) ) ;
#109 = ORIENTED_EDGE ( 'NONE', *, *, #7, .T. ) ;
#110 = APPROVAL ( #69, 'UNSPECIFIED' ) ;
#111 = EDGE_LOOP ( 'NONE', ( #109 ) ) ;
#112 = CIRCLE ( 'NONE', #28, 1.499999999999993783 ) ;
#113 = EDGE_CURVE ( 'NONE', #83, #83, #217, .T. ) ;
#114 = EDGE_LOOP ( 'NONE', ( #18 ) ) ;
#115 = FACE_OUTER_BOUND ( 'NONE', #17, .T. ) ;
#116 = VERTEX_POINT ( 'NONE', #232 ) ;
#117 = AXIS2_PLACEMENT_3D ( 'NONE', #72, #150, #225 ) ;
#118 = FACE_OUTER_BOUND ( 'NONE', #111, .T. ) ;
#119 = FACE_OUTER_BOUND ( 'NONE', #94, .T. ) ;
#120 = DIRECTION ( 'NONE',  ( 0.0000000000000000000, -1.000000000000000000, 0.0000000000000000000 ) ) ;
#121 = APPROVAL_DATE_TIME ( #13, #45 ) ;
#122 = COORDINATED_UNIVERSAL_TIME_OFFSET ( 1, 0, .AHEAD. ) ;
#123 = APPLICATION_PROTOCOL_DEFINITION ( 'international standard', 'config_control_design', 1994, #133 ) ;
#124 = APPROVAL_DATE_TIME ( #162, #20 ) ;
#125 = AXIS2_PLACEMENT_3D ( 'NONE', #179, #9, #229 ) ;
#126 = CC_DESIGN_PERSON_AND_ORGANIZATION_ASSIGNMENT ( #218, #216, ( #173 ) ) ;
#127 = PERSON_AND_ORGANIZATION ( #234, #95 ) ;
#128 = ORIENTED_EDGE ( 'NONE', *, *, #182, .T. ) ;
#129 = EDGE_LOOP ( 'NONE', ( #167 ) ) ;
#130 = FACE_OUTER_BOUND ( 'NONE', #108, .T. ) ;
#131 = ORIENTED_EDGE ( 'NONE', *, *, #157, .T. ) ;
#132 = ADVANCED_FACE ( 'NONE', ( #25, #8 ), #231, .T. ) ;
#133 = APPLICATION_CONTEXT ( 'configuration controlled 3d designs of mechanical parts and assemblies' ) ;
#134 = DIRECTION ( 'NONE',  ( -3.491481338843133355E-15, 1.224646799147353207E-16, -1.000000000000000000 ) ) ;
#135 = ADVANCED_FACE ( 'NONE', ( #212 ), #230, .F. ) ;
#136 = CIRCLE ( 'NONE', #117, 0.5500000000000001554 ) ;
#137 = CARTESIAN_POINT ( 'NONE',  ( 9.488582677680149762E-15, -0.6181483474218608665, 2.717638090205028778 ) ) ;
#138 = CARTESIAN_POINT ( 'NONE',  ( 2.097944988526119162E-14, -7.326129968316950264E-16, 6.008753262365285508 ) ) ;
#139 = FACE_BOUND ( 'NONE', #129, .T. ) ;
#140 = CARTESIAN_POINT ( 'NONE',  ( 0.0000000000000000000, 0.0000000000000000000, 0.0000000000000000000 ) ) ;
#141 = FACE_OUTER_BOUND ( 'NONE', #114, .T. ) ;
#142 = AXIS2_PLACEMENT_3D ( 'NONE', #184, #197, #27 ) ;
#143 =( NAMED_UNIT ( * ) SI_UNIT ( $, .STERADIAN. ) SOLID_ANGLE_UNIT ( ) );
#144 = CARTESIAN_POINT ( 'NONE',  ( 0.0000000000000000000, 0.0000000000000000000, 0.0000000000000000000 ) ) ;
#145 = CALENDAR_DATE ( 2021, 1, 11 ) ;
#146 = COORDINATED_UNIVERSAL_TIME_OFFSET ( 1, 0, .AHEAD. ) ;
#147 = AXIS2_PLACEMENT_3D ( 'NONE', #144, #219, #104 ) ;
#148 = EDGE_LOOP ( 'NONE', ( #38 ) ) ;
#149 = ADVANCED_FACE ( 'NONE', ( #141, #59 ), #96, .T. ) ;
#150 = DIRECTION ( 'NONE',  ( 3.491481338843133355E-15, -1.219242935835426903E-16, 1.000000000000000000 ) ) ;
#151 = LOCAL_TIME ( 10, 16, 4.000000000000000000, #14 ) ;
#152 = MANIFOLD_SOLID_BREP ( 'Corps-Déplacer/Copier1[1]', #89 ) ;
#153 = EDGE_LOOP ( 'NONE', ( #15 ) ) ;
#154 = CYLINDRICAL_SURFACE ( 'NONE', #23, 1.499999999999993783 ) ;
#155 = CARTESIAN_POINT ( 'NONE',  ( 1.316288464743861212E-13, 1.499999999999991340, 37.69999999999999574 ) ) ;
#156 = DIRECTION ( 'NONE',  ( 3.491481338843133355E-15, -1.219242935835426903E-16, 1.000000000000000000 ) ) ;
#157 = EDGE_CURVE ( 'NONE', #116, #116, #112, .T. ) ;
#158 = DIRECTION ( 'NONE',  ( 3.491481338843133355E-15, -1.224646799147353207E-16, 1.000000000000000000 ) ) ;
#159 = CARTESIAN_POINT ( 'NONE',  ( 1.326762908760390423E-13, -4.653657836759941941E-15, 38.00000000000000000 ) ) ;
#160 = CARTESIAN_POINT ( 'NONE',  ( 7.681258945454893382E-15, -0.5500000000000001554, 2.199999999999999734 ) ) ;
#161 = APPLICATION_CONTEXT ( 'configuration controlled 3d designs of mechanical parts and assemblies' ) ;
#162 = DATE_AND_TIME ( #49, #211 ) ;
#163 = CC_DESIGN_DATE_AND_TIME_ASSIGNMENT ( #185, #100, ( #224 ) ) ;
#164 = COORDINATED_UNIVERSAL_TIME_OFFSET ( 1, 0, .AHEAD. ) ;
#165 = PERSON_AND_ORGANIZATION ( #234, #95 ) ;
#166 = PRODUCT_DEFINITION_FORMATION_WITH_SPECIFIED_SOURCE ( 'ANY', '', #19, .NOT_KNOWN. ) ;
#167 = ORIENTED_EDGE ( 'NONE', *, *, #113, .T. ) ;
#168 = PRODUCT_RELATED_PRODUCT_CATEGORY ( 'detail', '', ( #19 ) ) ;
#169 = DIRECTION ( 'NONE',  ( 4.275831445896958607E-31, 1.000000000000000000, 1.224646799147353207E-16 ) ) ;
#170 = ADVANCED_FACE ( 'NONE', ( #118 ), #60, .T. ) ;
#171 = ADVANCED_BREP_SHAPE_REPRESENTATION ( '35247', ( #152, #66, #147 ), #207 ) ;
#172 = ORIENTED_EDGE ( 'NONE', *, *, #7, .F. ) ;
#173 = PRODUCT_DEFINITION ( 'UNKNOWN', '', #166, #213 ) ;
#174 = CARTESIAN_POINT ( 'NONE',  ( -1.068955699180124799E-30, 3.749391872347842254E-32, -3.061610804811898009E-16 ) ) ;
#175 = DIRECTION ( 'NONE',  ( 4.275831445896958607E-31, 1.000000000000000000, 1.224646799147353207E-16 ) ) ;
#176 = DIRECTION ( 'NONE',  ( -4.275831445896958607E-31, -1.000000000000000000, -1.224646799147353207E-16 ) ) ;
#177 = ADVANCED_FACE ( 'NONE', ( #119, #115 ), #32, .F. ) ;
#178 = AXIS2_PLACEMENT_3D ( 'NONE', #78, #6, #176 ) ;
#179 = CARTESIAN_POINT ( 'NONE',  ( 7.681258945454893382E-15, -4.336808689942017736E-16, 2.199999999999999734 ) ) ;
#180 = ADVANCED_FACE ( 'NONE', ( #139, #58 ), #47, .T. ) ;
#181 = CARTESIAN_POINT ( 'NONE',  ( 7.681258945454893382E-15, -2.682334458837938989E-16, 2.199999999999999734 ) ) ;
#182 = EDGE_CURVE ( 'NONE', #214, #214, #241, .T. ) ;
#183 = VERTEX_POINT ( 'NONE', #98 ) ;
#184 = CARTESIAN_POINT ( 'NONE',  ( 3.400983563550272573E-14, -1.187640655162432759E-15, 9.740804069934263509 ) ) ;
#185 = DATE_AND_TIME ( #145, #70 ) ;
#186 = APPROVAL_PERSON_ORGANIZATION ( #235, #110, #33 ) ;
#187 = CALENDAR_DATE ( 2021, 1, 11 ) ;
#188 = CC_DESIGN_SECURITY_CLASSIFICATION ( #224, ( #166 ) ) ;
#189 = EDGE_LOOP ( 'NONE', ( #36 ) ) ;
#190 = ORIENTED_EDGE ( 'NONE', *, *, #79, .F. ) ;
#191 = FACE_OUTER_BOUND ( 'NONE', #227, .T. ) ;
#192 = AXIS2_PLACEMENT_3D ( 'NONE', #54, #75, #52 ) ;
#193 = DIRECTION ( 'NONE',  ( -3.491481338843133355E-15, 1.224646799147353207E-16, -1.000000000000000000 ) ) ;
#194 = DIRECTION ( 'NONE',  ( 0.0000000000000000000, -1.000000000000000000, 0.0000000000000000000 ) ) ;
#195 = CC_DESIGN_APPROVAL ( #45, ( #166 ) ) ;
#196 = DIRECTION ( 'NONE',  ( -3.491481338843133355E-15, 1.224646799147353207E-16, -1.000000000000000000 ) ) ;
#197 = DIRECTION ( 'NONE',  ( 3.491481338843133355E-15, -1.219242935835426903E-16, 1.000000000000000000 ) ) ;
#198 = CC_DESIGN_PERSON_AND_ORGANIZATION_ASSIGNMENT ( #240, #11, ( #19 ) ) ;
#199 = CLOSED_SHELL ( 'NONE', ( #170, #149, #16 ) ) ;
#200 = DIRECTION ( 'NONE',  ( 0.0000000000000000000, 1.000000000000000000, 0.0000000000000000000 ) ) ;
#201 = PERSON_AND_ORGANIZATION ( #234, #95 ) ;
#202 = PERSON_AND_ORGANIZATION_ROLE ( 'creator' ) ;
#203 = SHAPE_DEFINITION_REPRESENTATION ( #87, #171 ) ;
#204 = AXIS2_PLACEMENT_3D ( 'NONE', #140, #156, #76 ) ;
#205 = ORIENTED_EDGE ( 'NONE', *, *, #77, .F. ) ;
#206 = CARTESIAN_POINT ( 'NONE',  ( 1.326762908760390423E-13, 8.998558695971044381E-33, 38.00000000000000000 ) ) ;
#207 =( GEOMETRIC_REPRESENTATION_CONTEXT ( 3 ) GLOBAL_UNCERTAINTY_ASSIGNED_CONTEXT ( ( #233 ) ) GLOBAL_UNIT_ASSIGNED_CONTEXT ( ( #39, #4, #143 ) ) REPRESENTATION_CONTEXT ( 'NONE', 'WORKASPACE' ) );
#208 = CC_DESIGN_PERSON_AND_ORGANIZATION_ASSIGNMENT ( #165, #239, ( #166 ) ) ;
#209 = DIRECTION ( 'NONE',  ( -3.491481338843133355E-15, 1.224646799147353207E-16, -1.000000000000000000 ) ) ;
#210 = CARTESIAN_POINT ( 'NONE',  ( 7.681258945454893382E-15, -0.5500000000000001554, 2.199999999999999734 ) ) ;
#211 = LOCAL_TIME ( 10, 16, 4.000000000000000000, #146 ) ;
#212 = FACE_OUTER_BOUND ( 'NONE', #92, .T. ) ;
#213 = DESIGN_CONTEXT ( 'detailed design', #161, 'design' ) ;
#214 = VERTEX_POINT ( 'NONE', #155 ) ;
#215 = CIRCLE ( 'NONE', #106, 0.5499999999999999334 ) ;
#216 = PERSON_AND_ORGANIZATION_ROLE ( 'creator' ) ;
#217 = CIRCLE ( 'NONE', #1, 0.6181483474218605334 ) ;
#218 = PERSON_AND_ORGANIZATION ( #234, #95 ) ;
#219 = DIRECTION ( 'NONE',  ( 0.0000000000000000000, 0.0000000000000000000, 1.000000000000000000 ) ) ;
#220 = APPROVAL_ROLE ( '' ) ;
#221 = AXIS2_PLACEMENT_3D ( 'NONE', #181, #44, #194 ) ;
#222 = PERSON_AND_ORGANIZATION ( #234, #95 ) ;
#223 = PLANE ( 'NONE',  #86 ) ;
#224 = SECURITY_CLASSIFICATION ( '', '', #30 ) ;
#225 = DIRECTION ( 'NONE',  ( -4.256963957985708013E-31, -1.000000000000000000, -1.219242935835427642E-16 ) ) ;
#226 = ORIENTED_EDGE ( 'NONE', *, *, #113, .F. ) ;
#227 = EDGE_LOOP ( 'NONE', ( #21 ) ) ;
#228 = CARTESIAN_POINT ( 'NONE',  ( 7.681258945454894959E-15, 1.124819836996386637E-32, 2.200000000000000178 ) ) ;
#229 = DIRECTION ( 'NONE',  ( -4.315327242388476984E-31, -1.000000000000000000, -1.219242935835426903E-16 ) ) ;
#230 = PLANE ( 'NONE',  #178 ) ;
#231 = CONICAL_SURFACE ( 'NONE', #5, 1.199999999999995515, 0.7853981633974461696 ) ;
#232 = CARTESIAN_POINT ( 'NONE',  ( 2.097944988526119162E-14, -1.499999999999994449, 6.008753262365285508 ) ) ;
#233 = UNCERTAINTY_MEASURE_WITH_UNIT (LENGTH_MEASURE( 1.000000000000000082E-05 ), #39, 'distance_accuracy_value', 'NONE');
#234 = PERSON ( 'UNSPECIFIED', 'UNSPECIFIED', 'UNSPECIFIED', ('UNSPECIFIED'), ('UNSPECIFIED'), ('UNSPECIFIED') ) ;
#235 = PERSON_AND_ORGANIZATION ( #234, #95 ) ;
#236 = DATE_TIME_ROLE ( 'creation_date' ) ;
#237 = AXIS2_PLACEMENT_3D ( 'NONE', #174, #71, #91 ) ;
#238 = PERSON_AND_ORGANIZATION_ROLE ( 'classification_officer' ) ;
#239 = PERSON_AND_ORGANIZATION_ROLE ( 'design_supplier' ) ;
#240 = PERSON_AND_ORGANIZATION ( #234, #95 ) ;
#241 = CIRCLE ( 'NONE', #107, 1.499999999999996003 ) ;
#242 = DIRECTION ( 'NONE',  ( 3.491481338843133355E-15, -1.219242935835426903E-16, 1.000000000000000000 ) ) ;
#243 = FACE_OUTER_BOUND ( 'NONE', #2, .T. ) ;
ENDSEC;
END-ISO-10303-21;
