ISO-10303-21;
HEADER;
FILE_DESCRIPTION (( 'STEP AP203' ),
    '1' );
FILE_NAME ('35246.step',
    '2021-11-01T09:16:04',
    ( '' ),
    ( '' ),
    'SwSTEP 2.0',
    'SolidWorks 2019',
    '' );
FILE_SCHEMA (( 'CONFIG_CONTROL_DESIGN' ));
ENDSEC;

DATA;
#1 = PERSON_AND_ORGANIZATION_ROLE ( 'creator' ) ;
#2 = DIRECTION ( 'NONE',  ( 0.0000000000000000000, 0.0000000000000000000, 1.000000000000000000 ) ) ;
#3 = APPLICATION_CONTEXT ( 'configuration controlled 3d designs of mechanical parts and assemblies' ) ;
#4 = CLOSED_SHELL ( 'NONE', ( #214, #159, #100 ) ) ;
#5 = APPROVAL_DATE_TIME ( #224, #47 ) ;
#6 = DESIGN_CONTEXT ( 'detailed design', #3, 'design' ) ;
#7 = CARTESIAN_POINT ( 'NONE',  ( 6.982962677686265133E-15, -2.438485871670853312E-16, 1.999999999999999556 ) ) ;
#8 = CARTESIAN_POINT ( 'NONE',  ( 6.982962677686266711E-15, 1.124819836996386637E-32, 2.000000000000000000 ) ) ;
#9 = CARTESIAN_POINT ( 'NONE',  ( 1.326762908760390423E-13, -4.653657836759941941E-15, 38.00000000000000000 ) ) ;
#10 = CARTESIAN_POINT ( 'NONE',  ( 1.326762908760390423E-13, -4.653657836759941941E-15, 38.00000000000000000 ) ) ;
#11 = ADVANCED_FACE ( 'NONE', ( #97, #25 ), #173, .F. ) ;
#12 = FACE_OUTER_BOUND ( 'NONE', #192, .T. ) ;
#13 = AXIS2_PLACEMENT_3D ( 'NONE', #104, #2, #69 ) ;
#14 =( NAMED_UNIT ( * ) SI_UNIT ( $, .STERADIAN. ) SOLID_ANGLE_UNIT ( ) );
#15 = APPROVAL ( #106, 'UNSPECIFIED' ) ;
#16 = VERTEX_POINT ( 'NONE', #204 ) ;
#17 = AXIS2_PLACEMENT_3D ( 'NONE', #179, #174, #78 ) ;
#18 = CALENDAR_DATE ( 2021, 1, 11 ) ;
#19 = PERSON_AND_ORGANIZATION ( #221, #236 ) ;
#20 = AXIS2_PLACEMENT_3D ( 'NONE', #216, #195, #101 ) ;
#21 = EDGE_LOOP ( 'NONE', ( #71 ) ) ;
#22 = EDGE_LOOP ( 'NONE', ( #77 ) ) ;
#23 = ORIENTED_EDGE ( 'NONE', *, *, #144, .F. ) ;
#24 = PLANE ( 'NONE',  #17 ) ;
#25 = FACE_OUTER_BOUND ( 'NONE', #225, .T. ) ;
#26 = DIRECTION ( 'NONE',  ( -3.491481338843133355E-15, 1.224646799147353207E-16, -1.000000000000000000 ) ) ;
#27 = CIRCLE ( 'NONE', #235, 0.4999999999999997780 ) ;
#28 = CARTESIAN_POINT ( 'NONE',  ( 8.790286409911523091E-15, -3.069612456472676549E-16, 2.517638090205028600 ) ) ;
#29 = CC_DESIGN_PERSON_AND_ORGANIZATION_ASSIGNMENT ( #122, #31, ( #180 ) ) ;
#30 = CARTESIAN_POINT ( 'NONE',  ( 1.316288464743861212E-13, -4.616918432785521081E-15, 37.69999999999999574 ) ) ;
#31 = PERSON_AND_ORGANIZATION_ROLE ( 'design_owner' ) ;
#32 = DIRECTION ( 'NONE',  ( -3.491481338843133355E-15, 1.224646799147353207E-16, -1.000000000000000000 ) ) ;
#33 = VERTEX_POINT ( 'NONE', #86 ) ;
#34 = CLOSED_SHELL ( 'NONE', ( #197, #232, #243, #178, #11, #92 ) ) ;
#35 =( GEOMETRIC_REPRESENTATION_CONTEXT ( 3 ) GLOBAL_UNCERTAINTY_ASSIGNED_CONTEXT ( ( #76 ) ) GLOBAL_UNIT_ASSIGNED_CONTEXT ( ( #148, #219, #14 ) ) REPRESENTATION_CONTEXT ( 'NONE', 'WORKASPACE' ) );
#36 = PERSON_AND_ORGANIZATION_ROLE ( 'design_supplier' ) ;
#37 = AXIS2_PLACEMENT_3D ( 'NONE', #237, #164, #46 ) ;
#38 = LOCAL_TIME ( 10, 16, 4.000000000000000000, #203 ) ;
#39 = ORIENTED_EDGE ( 'NONE', *, *, #40, .T. ) ;
#40 = EDGE_CURVE ( 'NONE', #222, #222, #185, .T. ) ;
#41 = CALENDAR_DATE ( 2021, 1, 11 ) ;
#42 = ORIENTED_EDGE ( 'NONE', *, *, #187, .T. ) ;
#43 = FACE_OUTER_BOUND ( 'NONE', #211, .T. ) ;
#44 = DIRECTION ( 'NONE',  ( 3.491481338843133355E-15, -1.224646799147353207E-16, 1.000000000000000000 ) ) ;
#45 = CYLINDRICAL_SURFACE ( 'NONE', #140, 1.499999999999993783 ) ;
#46 = DIRECTION ( 'NONE',  ( -4.256963957985705386E-31, -1.000000000000000000, -1.219242935835427396E-16 ) ) ;
#47 = APPROVAL ( #105, 'UNSPECIFIED' ) ;
#48 = DIRECTION ( 'NONE',  ( 3.491481338843133355E-15, -1.219242935835426903E-16, 1.000000000000000000 ) ) ;
#49 = VERTEX_POINT ( 'NONE', #120 ) ;
#50 = COORDINATED_UNIVERSAL_TIME_OFFSET ( 1, 0, .AHEAD. ) ;
#51 = DATE_TIME_ROLE ( 'creation_date' ) ;
#52 = EDGE_CURVE ( 'NONE', #68, #68, #128, .T. ) ;
#53 = CALENDAR_DATE ( 2021, 1, 11 ) ;
#54 = PERSON_AND_ORGANIZATION ( #221, #236 ) ;
#55 = EDGE_CURVE ( 'NONE', #49, #49, #27, .T. ) ;
#56 = EDGE_LOOP ( 'NONE', ( #157 ) ) ;
#57 = COORDINATED_UNIVERSAL_TIME_OFFSET ( 1, 0, .AHEAD. ) ;
#58 = DIRECTION ( 'NONE',  ( 0.0000000000000000000, 1.000000000000000000, 0.0000000000000000000 ) ) ;
#59 = MANIFOLD_SOLID_BREP ( 'Corps-Déplacer/Copier1[1]', #34 ) ;
#60 = DIRECTION ( 'NONE',  ( 0.0000000000000000000, -1.000000000000000000, 0.0000000000000000000 ) ) ;
#61 = CC_DESIGN_PERSON_AND_ORGANIZATION_ASSIGNMENT ( #54, #36, ( #91 ) ) ;
#62 = FACE_OUTER_BOUND ( 'NONE', #22, .T. ) ;
#63 = PLANE ( 'NONE',  #133 ) ;
#64 = AXIS2_PLACEMENT_3D ( 'NONE', #10, #81, #141 ) ;
#65 = CYLINDRICAL_SURFACE ( 'NONE', #20, 0.4999999999999998890 ) ;
#66 = CARTESIAN_POINT ( 'NONE',  ( -3.204982511043360600E-30, -0.5000000000000000000, -9.179434744180242255E-16 ) ) ;
#67 = CIRCLE ( 'NONE', #198, 0.5681483474218599339 ) ;
#68 = VERTEX_POINT ( 'NONE', #169 ) ;
#69 = DIRECTION ( 'NONE',  ( 1.000000000000000000, 0.0000000000000000000, 0.0000000000000000000 ) ) ;
#70 = CARTESIAN_POINT ( 'NONE',  ( 8.790286409911523091E-15, -0.5681483474218602669, 2.517638090205028600 ) ) ;
#71 = ORIENTED_EDGE ( 'NONE', *, *, #40, .F. ) ;
#72 = ORIENTED_EDGE ( 'NONE', *, *, #165, .T. ) ;
#73 = PERSON_AND_ORGANIZATION ( #221, #236 ) ;
#74 = AXIS2_PLACEMENT_3D ( 'NONE', #162, #238, #217 ) ;
#75 = AXIS2_PLACEMENT_3D ( 'NONE', #145, #32, #168 ) ;
#76 = UNCERTAINTY_MEASURE_WITH_UNIT (LENGTH_MEASURE( 1.000000000000000082E-05 ), #148, 'distance_accuracy_value', 'NONE');
#77 = ORIENTED_EDGE ( 'NONE', *, *, #52, .F. ) ;
#78 = DIRECTION ( 'NONE',  ( -4.275831445896958607E-31, -1.000000000000000000, -1.224646799147353207E-16 ) ) ;
#79 = DIRECTION ( 'NONE',  ( 3.491481338843133355E-15, -1.224646799147353207E-16, 1.000000000000000000 ) ) ;
#80 = DIRECTION ( 'NONE',  ( -3.491481338843133355E-15, 1.219242935835426903E-16, -1.000000000000000000 ) ) ;
#81 = DIRECTION ( 'NONE',  ( -3.491481338843133355E-15, 1.224646799147353207E-16, -1.000000000000000000 ) ) ;
#82 = PLANE ( 'NONE',  #139 ) ;
#83 = CIRCLE ( 'NONE', #37, 0.5000000000000000000 ) ;
#84 = APPROVAL_DATE_TIME ( #207, #15 ) ;
#85 = EDGE_CURVE ( 'NONE', #16, #16, #125, .T. ) ;
#86 = CARTESIAN_POINT ( 'NONE',  ( 1.326762908760390423E-13, 1.199999999999991074, 38.00000000000000000 ) ) ;
#87 = CIRCLE ( 'NONE', #117, 1.199999999999995515 ) ;
#88 = CC_DESIGN_APPROVAL ( #241, ( #149 ) ) ;
#89 = APPROVAL_PERSON_ORGANIZATION ( #205, #47, #182 ) ;
#90 = VERTEX_POINT ( 'NONE', #70 ) ;
#91 = PRODUCT_DEFINITION_FORMATION_WITH_SPECIFIED_SOURCE ( 'ANY', '', #180, .NOT_KNOWN. ) ;
#92 = ADVANCED_FACE ( 'NONE', ( #175 ), #63, .F. ) ;
#93 = SHAPE_DEFINITION_REPRESENTATION ( #142, #138 ) ;
#94 = EDGE_LOOP ( 'NONE', ( #132 ) ) ;
#95 = APPROVAL_PERSON_ORGANIZATION ( #96, #241, #107 ) ;
#96 = PERSON_AND_ORGANIZATION ( #221, #236 ) ;
#97 = FACE_OUTER_BOUND ( 'NONE', #191, .T. ) ;
#98 = DIRECTION ( 'NONE',  ( -4.275831445896958607E-31, -1.000000000000000000, -1.224646799147353207E-16 ) ) ;
#99 = DIRECTION ( 'NONE',  ( -3.491481338843133355E-15, 1.224646799147353207E-16, -1.000000000000000000 ) ) ;
#100 = ADVANCED_FACE ( 'NONE', ( #240 ), #82, .F. ) ;
#101 = DIRECTION ( 'NONE',  ( -4.256963957985708889E-31, -1.000000000000000000, -1.219242935835426903E-16 ) ) ;
#102 = DIRECTION ( 'NONE',  ( 3.491481338843133355E-15, -1.219242935835426903E-16, 1.000000000000000000 ) ) ;
#103 = DATE_AND_TIME ( #147, #38 ) ;
#104 = CARTESIAN_POINT ( 'NONE',  ( 0.0000000000000000000, 0.0000000000000000000, 0.0000000000000000000 ) ) ;
#105 = APPROVAL_STATUS ( 'not_yet_approved' ) ;
#106 = APPROVAL_STATUS ( 'not_yet_approved' ) ;
#107 = APPROVAL_ROLE ( '' ) ;
#108 = ORIENTED_EDGE ( 'NONE', *, *, #55, .F. ) ;
#109 = EDGE_LOOP ( 'NONE', ( #151 ) ) ;
#110 = CC_DESIGN_PERSON_AND_ORGANIZATION_ASSIGNMENT ( #73, #189, ( #149 ) ) ;
#111 = EDGE_LOOP ( 'NONE', ( #233 ) ) ;
#112 = CC_DESIGN_APPROVAL ( #15, ( #131 ) ) ;
#113 = DIRECTION ( 'NONE',  ( 4.275831445896958607E-31, 1.000000000000000000, 1.224646799147353207E-16 ) ) ;
#114 = CC_DESIGN_PERSON_AND_ORGANIZATION_ASSIGNMENT ( #155, #126, ( #91 ) ) ;
#115 = CARTESIAN_POINT ( 'NONE',  ( -1.068955699180124799E-30, 3.749391872347842254E-32, -3.061610804811898009E-16 ) ) ;
#116 = CARTESIAN_POINT ( 'NONE',  ( 0.0000000000000000000, 0.0000000000000000000, 0.0000000000000000000 ) ) ;
#117 = AXIS2_PLACEMENT_3D ( 'NONE', #9, #99, #58 ) ;
#118 = FACE_BOUND ( 'NONE', #190, .T. ) ;
#119 = FACE_OUTER_BOUND ( 'NONE', #21, .T. ) ;
#120 = CARTESIAN_POINT ( 'NONE',  ( 6.982962677686265133E-15, -0.5000000000000000000, 1.999999999999999556 ) ) ;
#121 = LOCAL_TIME ( 10, 16, 4.000000000000000000, #130 ) ;
#122 = PERSON_AND_ORGANIZATION ( #221, #236 ) ;
#123 = CARTESIAN_POINT ( 'NONE',  ( 2.093267290500465080E-14, -1.499999999999994449, 5.995355802743737250 ) ) ;
#124 = APPROVAL_ROLE ( '' ) ;
#125 = CIRCLE ( 'NONE', #176, 0.4999999999999997780 ) ;
#126 = PERSON_AND_ORGANIZATION_ROLE ( 'creator' ) ;
#127 = ORIENTED_EDGE ( 'NONE', *, *, #52, .T. ) ;
#128 = CIRCLE ( 'NONE', #163, 1.499999999999996003 ) ;
#129 = LOCAL_TIME ( 10, 16, 4.000000000000000000, #57 ) ;
#130 = COORDINATED_UNIVERSAL_TIME_OFFSET ( 1, 0, .AHEAD. ) ;
#131 = PRODUCT_DEFINITION ( 'UNKNOWN', '', #91, #6 ) ;
#132 = ORIENTED_EDGE ( 'NONE', *, *, #144, .T. ) ;
#133 = AXIS2_PLACEMENT_3D ( 'NONE', #8, #79, #98 ) ;
#134 = CONICAL_SURFACE ( 'NONE', #64, 1.199999999999995515, 0.7853981633974461696 ) ;
#135 = FACE_OUTER_BOUND ( 'NONE', #111, .T. ) ;
#136 = FACE_OUTER_BOUND ( 'NONE', #231, .T. ) ;
#137 = DIRECTION ( 'NONE',  ( 0.0000000000000000000, 1.000000000000000000, 0.0000000000000000000 ) ) ;
#138 = ADVANCED_BREP_SHAPE_REPRESENTATION ( '35246', ( #59, #230, #13 ), #35 ) ;
#139 = AXIS2_PLACEMENT_3D ( 'NONE', #115, #44, #161 ) ;
#140 = AXIS2_PLACEMENT_3D ( 'NONE', #116, #26, #113 ) ;
#141 = DIRECTION ( 'NONE',  ( 0.0000000000000000000, 1.000000000000000000, 0.0000000000000000000 ) ) ;
#142 = PRODUCT_DEFINITION_SHAPE ( 'NONE', 'NONE',  #131 ) ;
#143 = DIRECTION ( 'NONE',  ( 0.0000000000000000000, -1.000000000000000000, 0.0000000000000000000 ) ) ;
#144 = EDGE_CURVE ( 'NONE', #90, #90, #67, .T. ) ;
#145 = CARTESIAN_POINT ( 'NONE',  ( 1.326762908760390423E-13, 8.998558695971044381E-33, 38.00000000000000000 ) ) ;
#146 = AXIS2_PLACEMENT_3D ( 'NONE', #202, #80, #181 ) ;
#147 = CALENDAR_DATE ( 2021, 1, 11 ) ;
#148 =( LENGTH_UNIT ( ) NAMED_UNIT ( * ) SI_UNIT ( .MILLI., .METRE. ) );
#149 = SECURITY_CLASSIFICATION ( '', '', #212 ) ;
#150 = EDGE_LOOP ( 'NONE', ( #127 ) ) ;
#151 = ORIENTED_EDGE ( 'NONE', *, *, #165, .F. ) ;
#152 = APPLICATION_CONTEXT ( 'configuration controlled 3d designs of mechanical parts and assemblies' ) ;
#153 = DATE_TIME_ROLE ( 'classification_date' ) ;
#154 = ORIENTED_EDGE ( 'NONE', *, *, #85, .T. ) ;
#155 = PERSON_AND_ORGANIZATION ( #221, #236 ) ;
#156 = EDGE_LOOP ( 'NONE', ( #210 ) ) ;
#157 = ORIENTED_EDGE ( 'NONE', *, *, #85, .F. ) ;
#158 = DIRECTION ( 'NONE',  ( 3.491481338843133355E-15, -1.219242935835426903E-16, 1.000000000000000000 ) ) ;
#159 = ADVANCED_FACE ( 'NONE', ( #12, #136 ), #65, .T. ) ;
#160 = LOCAL_TIME ( 10, 16, 4.000000000000000000, #186 ) ;
#161 = DIRECTION ( 'NONE',  ( -4.275831445896958607E-31, -1.000000000000000000, -1.224646799147353207E-16 ) ) ;
#162 = CARTESIAN_POINT ( 'NONE',  ( 3.396305865524618807E-14, -1.186007179362261408E-15, 9.727406610312716140 ) ) ;
#163 = AXIS2_PLACEMENT_3D ( 'NONE', #30, #213, #137 ) ;
#164 = DIRECTION ( 'NONE',  ( 3.491481338843133355E-15, -1.219242935835426903E-16, 1.000000000000000000 ) ) ;
#165 = EDGE_CURVE ( 'NONE', #242, #242, #83, .T. ) ;
#166 = APPLICATION_PROTOCOL_DEFINITION ( 'international standard', 'config_control_design', 1994, #152 ) ;
#167 = PERSON_AND_ORGANIZATION ( #221, #236 ) ;
#168 = DIRECTION ( 'NONE',  ( 4.275831445896958607E-31, 1.000000000000000000, 1.224646799147353207E-16 ) ) ;
#169 = CARTESIAN_POINT ( 'NONE',  ( 1.316288464743861212E-13, 1.499999999999991340, 37.69999999999999574 ) ) ;
#170 = CC_DESIGN_DATE_AND_TIME_ASSIGNMENT ( #103, #51, ( #131 ) ) ;
#171 = PRODUCT_RELATED_PRODUCT_CATEGORY ( 'detail', '', ( #180 ) ) ;
#172 = DATE_AND_TIME ( #41, #129 ) ;
#173 = TOROIDAL_SURFACE ( 'NONE', #206, 2.500000000000000000, 2.000000000000000000 ) ;
#174 = DIRECTION ( 'NONE',  ( 3.491481338843133355E-15, -1.224646799147353207E-16, 1.000000000000000000 ) ) ;
#175 = FACE_OUTER_BOUND ( 'NONE', #56, .T. ) ;
#176 = AXIS2_PLACEMENT_3D ( 'NONE', #7, #48, #60 ) ;
#177 = DIRECTION ( 'NONE',  ( 0.0000000000000000000, -1.000000000000000000, 0.0000000000000000000 ) ) ;
#178 = ADVANCED_FACE ( 'NONE', ( #194, #43 ), #199, .T. ) ;
#179 = CARTESIAN_POINT ( 'NONE',  ( 6.982962677686266711E-15, 1.124819836996386637E-32, 2.000000000000000000 ) ) ;
#180 = PRODUCT ( '35246', '35246', '', ( #183 ) ) ;
#181 = DIRECTION ( 'NONE',  ( 0.0000000000000000000, -1.000000000000000000, 0.0000000000000000000 ) ) ;
#182 = APPROVAL_ROLE ( '' ) ;
#183 = MECHANICAL_CONTEXT ( 'NONE', #152, 'mechanical' ) ;
#184 = FACE_OUTER_BOUND ( 'NONE', #156, .T. ) ;
#185 = CIRCLE ( 'NONE', #146, 1.499999999999993783 ) ;
#186 = COORDINATED_UNIVERSAL_TIME_OFFSET ( 1, 0, .AHEAD. ) ;
#187 = EDGE_CURVE ( 'NONE', #33, #33, #87, .T. ) ;
#188 = CALENDAR_DATE ( 2021, 1, 11 ) ;
#189 = PERSON_AND_ORGANIZATION_ROLE ( 'classification_officer' ) ;
#190 = EDGE_LOOP ( 'NONE', ( #42 ) ) ;
#191 = EDGE_LOOP ( 'NONE', ( #154 ) ) ;
#192 = EDGE_LOOP ( 'NONE', ( #72 ) ) ;
#193 = CC_DESIGN_SECURITY_CLASSIFICATION ( #149, ( #91 ) ) ;
#194 = FACE_BOUND ( 'NONE', #94, .T. ) ;
#195 = DIRECTION ( 'NONE',  ( 3.491481338843133355E-15, -1.219242935835426903E-16, 1.000000000000000000 ) ) ;
#196 = DIRECTION ( 'NONE',  ( 3.491481338843133355E-15, -1.219242935835426903E-16, 1.000000000000000000 ) ) ;
#197 = ADVANCED_FACE ( 'NONE', ( #215, #119 ), #45, .T. ) ;
#198 = AXIS2_PLACEMENT_3D ( 'NONE', #28, #102, #143 ) ;
#199 = CONICAL_SURFACE ( 'NONE', #74, 2.499999999999994671, 0.2617993877991428575 ) ;
#200 = LOCAL_TIME ( 10, 16, 4.000000000000000000, #50 ) ;
#201 = CARTESIAN_POINT ( 'NONE',  ( 6.982962677686265133E-15, -4.336808689942017736E-16, 1.999999999999999556 ) ) ;
#202 = CARTESIAN_POINT ( 'NONE',  ( 2.093267290500465080E-14, -7.309795210315235771E-16, 5.995355802743737250 ) ) ;
#203 = COORDINATED_UNIVERSAL_TIME_OFFSET ( 1, 0, .AHEAD. ) ;
#204 = CARTESIAN_POINT ( 'NONE',  ( 6.982962677686265133E-15, -0.5000000000000000000, 1.999999999999999556 ) ) ;
#205 = PERSON_AND_ORGANIZATION ( #221, #236 ) ;
#206 = AXIS2_PLACEMENT_3D ( 'NONE', #201, #158, #234 ) ;
#207 = DATE_AND_TIME ( #188, #200 ) ;
#208 = DATE_AND_TIME ( #53, #121 ) ;
#209 = APPROVAL_STATUS ( 'not_yet_approved' ) ;
#210 = ORIENTED_EDGE ( 'NONE', *, *, #187, .F. ) ;
#211 = EDGE_LOOP ( 'NONE', ( #39 ) ) ;
#212 = SECURITY_CLASSIFICATION_LEVEL ( 'unclassified' ) ;
#213 = DIRECTION ( 'NONE',  ( -3.491481338843133355E-15, 1.224646799147353207E-16, -1.000000000000000000 ) ) ;
#214 = ADVANCED_FACE ( 'NONE', ( #135 ), #24, .T. ) ;
#215 = FACE_OUTER_BOUND ( 'NONE', #150, .T. ) ;
#216 = CARTESIAN_POINT ( 'NONE',  ( 0.0000000000000000000, 0.0000000000000000000, 0.0000000000000000000 ) ) ;
#217 = DIRECTION ( 'NONE',  ( 0.0000000000000000000, -1.000000000000000000, 0.0000000000000000000 ) ) ;
#218 = CC_DESIGN_PERSON_AND_ORGANIZATION_ASSIGNMENT ( #19, #1, ( #131 ) ) ;
#219 =( NAMED_UNIT ( * ) PLANE_ANGLE_UNIT ( ) SI_UNIT ( $, .RADIAN. ) );
#220 = APPLICATION_PROTOCOL_DEFINITION ( 'international standard', 'config_control_design', 1994, #3 ) ;
#221 = PERSON ( 'UNSPECIFIED', 'UNSPECIFIED', 'UNSPECIFIED', ('UNSPECIFIED'), ('UNSPECIFIED'), ('UNSPECIFIED') ) ;
#222 = VERTEX_POINT ( 'NONE', #123 ) ;
#223 = PLANE ( 'NONE',  #75 ) ;
#224 = DATE_AND_TIME ( #18, #160 ) ;
#225 = EDGE_LOOP ( 'NONE', ( #23 ) ) ;
#226 = CC_DESIGN_DATE_AND_TIME_ASSIGNMENT ( #208, #153, ( #149 ) ) ;
#227 = APPROVAL_DATE_TIME ( #172, #241 ) ;
#228 = APPROVAL_PERSON_ORGANIZATION ( #167, #15, #124 ) ;
#229 = CC_DESIGN_APPROVAL ( #47, ( #91 ) ) ;
#230 = MANIFOLD_SOLID_BREP ( 'Corps-Déplacer/Copier1[2]', #4 ) ;
#231 = EDGE_LOOP ( 'NONE', ( #108 ) ) ;
#232 = ADVANCED_FACE ( 'NONE', ( #62, #118 ), #134, .T. ) ;
#233 = ORIENTED_EDGE ( 'NONE', *, *, #55, .T. ) ;
#234 = DIRECTION ( 'NONE',  ( -4.315975723326284799E-31, -1.000000000000000000, -1.219242935835426903E-16 ) ) ;
#235 = AXIS2_PLACEMENT_3D ( 'NONE', #239, #196, #177 ) ;
#236 = ORGANIZATION ( 'UNSPECIFIED', 'UNSPECIFIED', '' ) ;
#237 = CARTESIAN_POINT ( 'NONE',  ( -2.992134313144075287E-30, 1.044868429851174219E-31, -8.569813276262528803E-16 ) ) ;
#238 = DIRECTION ( 'NONE',  ( 3.491481338843133355E-15, -1.219242935835426903E-16, 1.000000000000000000 ) ) ;
#239 = CARTESIAN_POINT ( 'NONE',  ( 6.982962677686265133E-15, -2.438485871670853312E-16, 1.999999999999999556 ) ) ;
#240 = FACE_OUTER_BOUND ( 'NONE', #109, .T. ) ;
#241 = APPROVAL ( #209, 'UNSPECIFIED' ) ;
#242 = VERTEX_POINT ( 'NONE', #66 ) ;
#243 = ADVANCED_FACE ( 'NONE', ( #184 ), #223, .F. ) ;
ENDSEC;
END-ISO-10303-21;
