ISO-10303-21;
HEADER;
FILE_DESCRIPTION (( 'STEP AP203' ),
    '1' );
FILE_NAME ('35245.step',
    '2021-11-01T09:16:03',
    ( '' ),
    ( '' ),
    'SwSTEP 2.0',
    'SolidWorks 2019',
    '' );
FILE_SCHEMA (( 'CONFIG_CONTROL_DESIGN' ));
ENDSEC;

DATA;
#1 = FACE_OUTER_BOUND ( 'NONE', #179, .T. ) ;
#2 = CYLINDRICAL_SURFACE ( 'NONE', #9, 1.499999999999993783 ) ;
#3 = DIRECTION ( 'NONE',  ( -3.491481338843133355E-15, 1.224646799147353207E-16, -1.000000000000000000 ) ) ;
#4 = CC_DESIGN_PERSON_AND_ORGANIZATION_ASSIGNMENT ( #220, #73, ( #23 ) ) ;
#5 = CARTESIAN_POINT ( 'NONE',  ( 6.284666409917637673E-15, -0.4499999999999999001, 1.799999999999999378 ) ) ;
#6 = AXIS2_PLACEMENT_3D ( 'NONE', #46, #158, #216 ) ;
#7 = CARTESIAN_POINT ( 'NONE',  ( 1.316288464743861212E-13, 1.499999999999991340, 37.69999999999999574 ) ) ;
#8 = APPLICATION_PROTOCOL_DEFINITION ( 'international standard', 'config_control_design', 1994, #28 ) ;
#9 = AXIS2_PLACEMENT_3D ( 'NONE', #40, #22, #97 ) ;
#10 = ORIENTED_EDGE ( 'NONE', *, *, #93, .T. ) ;
#11 = DATE_AND_TIME ( #175, #155 ) ;
#12 = ORIENTED_EDGE ( 'NONE', *, *, #87, .F. ) ;
#13 = PRODUCT_RELATED_PRODUCT_CATEGORY ( 'detail', '', ( #74 ) ) ;
#14 = PERSON_AND_ORGANIZATION_ROLE ( 'classification_officer' ) ;
#15 = EDGE_LOOP ( 'NONE', ( #161 ) ) ;
#16 = DATE_TIME_ROLE ( 'classification_date' ) ;
#17 = CIRCLE ( 'NONE', #95, 0.4499999999999996780 ) ;
#18 = FACE_OUTER_BOUND ( 'NONE', #54, .T. ) ;
#19 = ADVANCED_FACE ( 'NONE', ( #181, #18 ), #2, .T. ) ;
#20 = FACE_OUTER_BOUND ( 'NONE', #202, .T. ) ;
#21 = FACE_OUTER_BOUND ( 'NONE', #122, .T. ) ;
#22 = DIRECTION ( 'NONE',  ( -3.491481338843133355E-15, 1.224646799147353207E-16, -1.000000000000000000 ) ) ;
#23 = PRODUCT_DEFINITION_FORMATION_WITH_SPECIFIED_SOURCE ( 'ANY', '', #74, .NOT_KNOWN. ) ;
#24 = DIRECTION ( 'NONE',  ( -3.491481338843133355E-15, 1.219242935835426903E-16, -1.000000000000000000 ) ) ;
#25 = CC_DESIGN_DATE_AND_TIME_ASSIGNMENT ( #195, #137, ( #147 ) ) ;
#26 = DIRECTION ( 'NONE',  ( -3.491481338843133355E-15, 1.224646799147353207E-16, -1.000000000000000000 ) ) ;
#27 = VERTEX_POINT ( 'NONE', #218 ) ;
#28 = APPLICATION_CONTEXT ( 'configuration controlled 3d designs of mechanical parts and assemblies' ) ;
#29 = APPROVAL_PERSON_ORGANIZATION ( #215, #241, #159 ) ;
#30 = ADVANCED_FACE ( 'NONE', ( #153 ), #75, .F. ) ;
#31 = CALENDAR_DATE ( 2021, 1, 11 ) ;
#32 = PERSON_AND_ORGANIZATION ( #143, #52 ) ;
#33 = AXIS2_PLACEMENT_3D ( 'NONE', #207, #79, #63 ) ;
#34 = EDGE_LOOP ( 'NONE', ( #10 ) ) ;
#35 = AXIS2_PLACEMENT_3D ( 'NONE', #112, #130, #225 ) ;
#36 = CC_DESIGN_PERSON_AND_ORGANIZATION_ASSIGNMENT ( #53, #14, ( #64 ) ) ;
#37 = CIRCLE ( 'NONE', #82, 0.4499999999999996780 ) ;
#38 = ORIENTED_EDGE ( 'NONE', *, *, #219, .T. ) ;
#39 = ADVANCED_FACE ( 'NONE', ( #167, #1 ), #174, .T. ) ;
#40 = CARTESIAN_POINT ( 'NONE',  ( 0.0000000000000000000, 0.0000000000000000000, 0.0000000000000000000 ) ) ;
#41 = DIRECTION ( 'NONE',  ( 0.0000000000000000000, 1.000000000000000000, 0.0000000000000000000 ) ) ;
#42 = AXIS2_PLACEMENT_3D ( 'NONE', #110, #3, #184 ) ;
#43 = CARTESIAN_POINT ( 'NONE',  ( 6.284666409917637673E-15, -2.194637284503767636E-16, 1.799999999999999378 ) ) ;
#44 = FACE_OUTER_BOUND ( 'NONE', #148, .T. ) ;
#45 = ADVANCED_FACE ( 'NONE', ( #149, #166 ), #90, .T. ) ;
#46 = CARTESIAN_POINT ( 'NONE',  ( 0.0000000000000000000, 0.0000000000000000000, 0.0000000000000000000 ) ) ;
#47 = COORDINATED_UNIVERSAL_TIME_OFFSET ( 1, 0, .AHEAD. ) ;
#48 = DIRECTION ( 'NONE',  ( -4.256963957985708889E-31, -1.000000000000000000, -1.219242935835426656E-16 ) ) ;
#49 = DATE_AND_TIME ( #141, #160 ) ;
#50 = AXIS2_PLACEMENT_3D ( 'NONE', #96, #168, #151 ) ;
#51 = EDGE_LOOP ( 'NONE', ( #38 ) ) ;
#52 = ORGANIZATION ( 'UNSPECIFIED', 'UNSPECIFIED', '' ) ;
#53 = PERSON_AND_ORGANIZATION ( #143, #52 ) ;
#54 = EDGE_LOOP ( 'NONE', ( #237 ) ) ;
#55 = ADVANCED_BREP_SHAPE_REPRESENTATION ( '35245', ( #140, #62, #6 ), #164 ) ;
#56 = SECURITY_CLASSIFICATION_LEVEL ( 'unclassified' ) ;
#57 = EDGE_LOOP ( 'NONE', ( #109 ) ) ;
#58 = LOCAL_TIME ( 10, 16, 3.000000000000000000, #86 ) ;
#59 = DIRECTION ( 'NONE',  ( -3.491481338843133355E-15, 1.224646799147353207E-16, -1.000000000000000000 ) ) ;
#60 = FACE_OUTER_BOUND ( 'NONE', #124, .T. ) ;
#61 = EDGE_CURVE ( 'NONE', #171, #171, #71, .T. ) ;
#62 = MANIFOLD_SOLID_BREP ( 'Corps-Déplacer/Copier1[2]', #154 ) ;
#63 = DIRECTION ( 'NONE',  ( 0.0000000000000000000, 1.000000000000000000, 0.0000000000000000000 ) ) ;
#64 = SECURITY_CLASSIFICATION ( '', '', #56 ) ;
#65 = DIRECTION ( 'NONE',  ( 3.491481338843133355E-15, -1.224646799147353207E-16, 1.000000000000000000 ) ) ;
#66 = EDGE_CURVE ( 'NONE', #70, #70, #37, .T. ) ;
#67 = DIRECTION ( 'NONE',  ( 0.0000000000000000000, -1.000000000000000000, 0.0000000000000000000 ) ) ;
#68 = PERSON_AND_ORGANIZATION_ROLE ( 'creator' ) ;
#69 =( LENGTH_UNIT ( ) NAMED_UNIT ( * ) SI_UNIT ( .MILLI., .METRE. ) );
#70 = VERTEX_POINT ( 'NONE', #104 ) ;
#71 = CIRCLE ( 'NONE', #177, 1.499999999999996003 ) ;
#72 = CC_DESIGN_APPROVAL ( #157, ( #147 ) ) ;
#73 = PERSON_AND_ORGANIZATION_ROLE ( 'design_supplier' ) ;
#74 = PRODUCT ( '35245', '35245', '', ( #139 ) ) ;
#75 = PLANE ( 'NONE',  #50 ) ;
#76 = AXIS2_PLACEMENT_3D ( 'NONE', #170, #59, #41 ) ;
#77 = DIRECTION ( 'NONE',  ( 0.0000000000000000000, -1.000000000000000000, 0.0000000000000000000 ) ) ;
#78 = DIRECTION ( 'NONE',  ( 3.491481338843133355E-15, -1.219242935835426903E-16, 1.000000000000000000 ) ) ;
#79 = DIRECTION ( 'NONE',  ( -3.491481338843133355E-15, 1.224646799147353207E-16, -1.000000000000000000 ) ) ;
#80 = CC_DESIGN_DATE_AND_TIME_ASSIGNMENT ( #178, #16, ( #64 ) ) ;
#81 = DIRECTION ( 'NONE',  ( 0.0000000000000000000, -1.000000000000000000, 0.0000000000000000000 ) ) ;
#82 = AXIS2_PLACEMENT_3D ( 'NONE', #43, #243, #77 ) ;
#83 = VERTEX_POINT ( 'NONE', #5 ) ;
#84 = EDGE_CURVE ( 'NONE', #190, #190, #182, .T. ) ;
#85 = UNCERTAINTY_MEASURE_WITH_UNIT (LENGTH_MEASURE( 1.000000000000000082E-05 ), #69, 'distance_accuracy_value', 'NONE');
#86 = COORDINATED_UNIVERSAL_TIME_OFFSET ( 1, 0, .AHEAD. ) ;
#87 = EDGE_CURVE ( 'NONE', #27, #27, #221, .T. ) ;
#88 = CLOSED_SHELL ( 'NONE', ( #19, #45, #126, #39, #128, #152 ) ) ;
#89 = EDGE_LOOP ( 'NONE', ( #238 ) ) ;
#90 = CONICAL_SURFACE ( 'NONE', #33, 1.199999999999995515, 0.7853981633974461696 ) ;
#91 = EDGE_LOOP ( 'NONE', ( #199 ) ) ;
#92 = CYLINDRICAL_SURFACE ( 'NONE', #201, 0.4499999999999997891 ) ;
#93 = EDGE_CURVE ( 'NONE', #172, #172, #138, .T. ) ;
#94 = DIRECTION ( 'NONE',  ( 0.0000000000000000000, 1.000000000000000000, 0.0000000000000000000 ) ) ;
#95 = AXIS2_PLACEMENT_3D ( 'NONE', #101, #192, #67 ) ;
#96 = CARTESIAN_POINT ( 'NONE',  ( -1.068955699180124799E-30, 3.749391872347842254E-32, -3.061610804811898009E-16 ) ) ;
#97 = DIRECTION ( 'NONE',  ( 4.275831445896958607E-31, 1.000000000000000000, 1.224646799147353207E-16 ) ) ;
#98 = DIRECTION ( 'NONE',  ( -4.275831445896958607E-31, -1.000000000000000000, -1.224646799147353207E-16 ) ) ;
#99 = CARTESIAN_POINT ( 'NONE',  ( 2.088589592474809105E-14, -1.499999999999994449, 5.981958343122183663 ) ) ;
#100 = APPLICATION_PROTOCOL_DEFINITION ( 'international standard', 'config_control_design', 1994, #204 ) ;
#101 = CARTESIAN_POINT ( 'NONE',  ( 6.284666409917637673E-15, -2.194637284503767636E-16, 1.799999999999999378 ) ) ;
#102 = EDGE_CURVE ( 'NONE', #136, #136, #142, .T. ) ;
#103 = APPROVAL_STATUS ( 'not_yet_approved' ) ;
#104 = CARTESIAN_POINT ( 'NONE',  ( 6.284666409917637673E-15, -0.4499999999999999001, 1.799999999999999378 ) ) ;
#105 = CC_DESIGN_PERSON_AND_ORGANIZATION_ASSIGNMENT ( #173, #68, ( #147 ) ) ;
#106 = ORIENTED_EDGE ( 'NONE', *, *, #61, .F. ) ;
#107 = AXIS2_PLACEMENT_3D ( 'NONE', #187, #227, #134 ) ;
#108 = COORDINATED_UNIVERSAL_TIME_OFFSET ( 1, 0, .AHEAD. ) ;
#109 = ORIENTED_EDGE ( 'NONE', *, *, #102, .T. ) ;
#110 = CARTESIAN_POINT ( 'NONE',  ( 1.326762908760390423E-13, 8.998558695971044381E-33, 38.00000000000000000 ) ) ;
#111 = CARTESIAN_POINT ( 'NONE',  ( 0.0000000000000000000, 0.0000000000000000000, 0.0000000000000000000 ) ) ;
#112 = CARTESIAN_POINT ( 'NONE',  ( -2.970849493354146510E-30, 1.037435663168251321E-31, -8.508851129470756768E-16 ) ) ;
#113 = PLANE ( 'NONE',  #214 ) ;
#114 = APPROVAL_DATE_TIME ( #49, #157 ) ;
#115 = ADVANCED_FACE ( 'NONE', ( #21 ), #212, .T. ) ;
#116 = APPROVAL_STATUS ( 'not_yet_approved' ) ;
#117 = PERSON_AND_ORGANIZATION ( #143, #52 ) ;
#118 = DESIGN_CONTEXT ( 'detailed design', #204, 'design' ) ;
#119 = CALENDAR_DATE ( 2021, 1, 11 ) ;
#120 = AXIS2_PLACEMENT_3D ( 'NONE', #169, #65, #98 ) ;
#121 = PERSON_AND_ORGANIZATION ( #143, #52 ) ;
#122 = EDGE_LOOP ( 'NONE', ( #145 ) ) ;
#123 = PERSON_AND_ORGANIZATION_ROLE ( 'creator' ) ;
#124 = EDGE_LOOP ( 'NONE', ( #165 ) ) ;
#125 = LOCAL_TIME ( 10, 16, 3.000000000000000000, #217 ) ;
#126 = ADVANCED_FACE ( 'NONE', ( #60 ), #206, .F. ) ;
#127 = ORIENTED_EDGE ( 'NONE', *, *, #219, .F. ) ;
#128 = ADVANCED_FACE ( 'NONE', ( #131, #44 ), #133, .F. ) ;
#129 = APPROVAL_PERSON_ORGANIZATION ( #32, #157, #231 ) ;
#130 = DIRECTION ( 'NONE',  ( 3.491481338843133355E-15, -1.219242935835426903E-16, 1.000000000000000000 ) ) ;
#131 = FACE_OUTER_BOUND ( 'NONE', #51, .T. ) ;
#132 = CARTESIAN_POINT ( 'NONE',  ( 8.091990142142894843E-15, -2.825763869305590873E-16, 2.317638090205028423 ) ) ;
#133 = TOROIDAL_SURFACE ( 'NONE', #107, 2.450000000000000178, 2.000000000000000000 ) ;
#134 = DIRECTION ( 'NONE',  ( -2.615303202592439531E-31, -1.000000000000000000, -1.219242935835426903E-16 ) ) ;
#135 = FACE_OUTER_BOUND ( 'NONE', #57, .T. ) ;
#136 = VERTEX_POINT ( 'NONE', #233 ) ;
#137 = DATE_TIME_ROLE ( 'creation_date' ) ;
#138 = CIRCLE ( 'NONE', #76, 1.199999999999995515 ) ;
#139 = MECHANICAL_CONTEXT ( 'NONE', #28, 'mechanical' ) ;
#140 = MANIFOLD_SOLID_BREP ( 'Corps-Déplacer/Copier1[1]', #88 ) ;
#141 = CALENDAR_DATE ( 2021, 1, 11 ) ;
#142 = CIRCLE ( 'NONE', #35, 0.4499999999999999001 ) ;
#143 = PERSON ( 'UNSPECIFIED', 'UNSPECIFIED', 'UNSPECIFIED', ('UNSPECIFIED'), ('UNSPECIFIED'), ('UNSPECIFIED') ) ;
#144 = DATE_AND_TIME ( #31, #58 ) ;
#145 = ORIENTED_EDGE ( 'NONE', *, *, #66, .T. ) ;
#146 = APPROVAL_ROLE ( '' ) ;
#147 = PRODUCT_DEFINITION ( 'UNKNOWN', '', #23, #118 ) ;
#148 = EDGE_LOOP ( 'NONE', ( #12 ) ) ;
#149 = FACE_OUTER_BOUND ( 'NONE', #240, .T. ) ;
#150 = CARTESIAN_POINT ( 'NONE',  ( 2.088589592474809105E-14, -7.293460452313516348E-16, 5.981958343122183663 ) ) ;
#151 = DIRECTION ( 'NONE',  ( -4.275831445896958607E-31, -1.000000000000000000, -1.224646799147353207E-16 ) ) ;
#152 = ADVANCED_FACE ( 'NONE', ( #211 ), #113, .F. ) ;
#153 = FACE_OUTER_BOUND ( 'NONE', #15, .T. ) ;
#154 = CLOSED_SHELL ( 'NONE', ( #115, #194, #30 ) ) ;
#155 = LOCAL_TIME ( 10, 16, 3.000000000000000000, #197 ) ;
#156 = CARTESIAN_POINT ( 'NONE',  ( 6.284666409917640040E-15, -2.602085213965217544E-16, 1.800000000000000044 ) ) ;
#157 = APPROVAL ( #103, 'UNSPECIFIED' ) ;
#158 = DIRECTION ( 'NONE',  ( 0.0000000000000000000, 0.0000000000000000000, 1.000000000000000000 ) ) ;
#159 = APPROVAL_ROLE ( '' ) ;
#160 = LOCAL_TIME ( 10, 16, 3.000000000000000000, #47 ) ;
#161 = ORIENTED_EDGE ( 'NONE', *, *, #102, .F. ) ;
#162 = EDGE_LOOP ( 'NONE', ( #127 ) ) ;
#163 = APPROVAL_DATE_TIME ( #144, #241 ) ;
#164 =( GEOMETRIC_REPRESENTATION_CONTEXT ( 3 ) GLOBAL_UNCERTAINTY_ASSIGNED_CONTEXT ( ( #85 ) ) GLOBAL_UNIT_ASSIGNED_CONTEXT ( ( #69, #230, #234 ) ) REPRESENTATION_CONTEXT ( 'NONE', 'WORKASPACE' ) );
#165 = ORIENTED_EDGE ( 'NONE', *, *, #93, .F. ) ;
#166 = FACE_BOUND ( 'NONE', #34, .T. ) ;
#167 = FACE_BOUND ( 'NONE', #91, .T. ) ;
#168 = DIRECTION ( 'NONE',  ( 3.491481338843133355E-15, -1.224646799147353207E-16, 1.000000000000000000 ) ) ;
#169 = CARTESIAN_POINT ( 'NONE',  ( 6.284666409917640040E-15, -2.602085213965217544E-16, 1.800000000000000044 ) ) ;
#170 = CARTESIAN_POINT ( 'NONE',  ( 1.326762908760390423E-13, -4.653657836759941941E-15, 38.00000000000000000 ) ) ;
#171 = VERTEX_POINT ( 'NONE', #7 ) ;
#172 = VERTEX_POINT ( 'NONE', #213 ) ;
#173 = PERSON_AND_ORGANIZATION ( #143, #52 ) ;
#174 = CONICAL_SURFACE ( 'NONE', #236, 2.499999999999994671, 0.2617993877991429130 ) ;
#175 = CALENDAR_DATE ( 2021, 1, 11 ) ;
#176 = PERSON_AND_ORGANIZATION ( #143, #52 ) ;
#177 = AXIS2_PLACEMENT_3D ( 'NONE', #229, #26, #94 ) ;
#178 = DATE_AND_TIME ( #180, #186 ) ;
#179 = EDGE_LOOP ( 'NONE', ( #222 ) ) ;
#180 = CALENDAR_DATE ( 2021, 1, 11 ) ;
#181 = FACE_OUTER_BOUND ( 'NONE', #89, .T. ) ;
#182 = CIRCLE ( 'NONE', #228, 1.499999999999993783 ) ;
#183 = DIRECTION ( 'NONE',  ( -4.275831445896958607E-31, -1.000000000000000000, -1.224646799147353207E-16 ) ) ;
#184 = DIRECTION ( 'NONE',  ( 4.275831445896958607E-31, 1.000000000000000000, 1.224646799147353207E-16 ) ) ;
#185 = DIRECTION ( 'NONE',  ( 3.491481338843133355E-15, -1.219242935835426903E-16, 1.000000000000000000 ) ) ;
#186 = LOCAL_TIME ( 10, 16, 3.000000000000000000, #108 ) ;
#187 = CARTESIAN_POINT ( 'NONE',  ( 6.284666409917637673E-15, -4.336808689942017736E-16, 1.799999999999999378 ) ) ;
#188 = DIRECTION ( 'NONE',  ( 3.491481338843133355E-15, -1.224646799147353207E-16, 1.000000000000000000 ) ) ;
#189 = CC_DESIGN_PERSON_AND_ORGANIZATION_ASSIGNMENT ( #117, #193, ( #74 ) ) ;
#190 = VERTEX_POINT ( 'NONE', #99 ) ;
#191 = CC_DESIGN_APPROVAL ( #241, ( #23 ) ) ;
#192 = DIRECTION ( 'NONE',  ( 3.491481338843133355E-15, -1.219242935835426903E-16, 1.000000000000000000 ) ) ;
#193 = PERSON_AND_ORGANIZATION_ROLE ( 'design_owner' ) ;
#194 = ADVANCED_FACE ( 'NONE', ( #135, #20 ), #92, .T. ) ;
#195 = DATE_AND_TIME ( #119, #125 ) ;
#196 = APPROVAL_PERSON_ORGANIZATION ( #176, #223, #146 ) ;
#197 = COORDINATED_UNIVERSAL_TIME_OFFSET ( 1, 0, .AHEAD. ) ;
#198 = CC_DESIGN_PERSON_AND_ORGANIZATION_ASSIGNMENT ( #121, #123, ( #23 ) ) ;
#199 = ORIENTED_EDGE ( 'NONE', *, *, #87, .T. ) ;
#200 = APPROVAL_DATE_TIME ( #11, #223 ) ;
#201 = AXIS2_PLACEMENT_3D ( 'NONE', #111, #185, #48 ) ;
#202 = EDGE_LOOP ( 'NONE', ( #203 ) ) ;
#203 = ORIENTED_EDGE ( 'NONE', *, *, #66, .F. ) ;
#204 = APPLICATION_CONTEXT ( 'configuration controlled 3d designs of mechanical parts and assemblies' ) ;
#205 = PRODUCT_DEFINITION_SHAPE ( 'NONE', 'NONE',  #147 ) ;
#206 = PLANE ( 'NONE',  #42 ) ;
#207 = CARTESIAN_POINT ( 'NONE',  ( 1.326762908760390423E-13, -4.653657836759941941E-15, 38.00000000000000000 ) ) ;
#208 = DIRECTION ( 'NONE',  ( 3.491481338843133355E-15, -1.219242935835426903E-16, 1.000000000000000000 ) ) ;
#209 = AXIS2_PLACEMENT_3D ( 'NONE', #132, #208, #81 ) ;
#210 = CC_DESIGN_APPROVAL ( #223, ( #64 ) ) ;
#211 = FACE_OUTER_BOUND ( 'NONE', #162, .T. ) ;
#212 = PLANE ( 'NONE',  #120 ) ;
#213 = CARTESIAN_POINT ( 'NONE',  ( 1.326762908760390423E-13, 1.199999999999991074, 38.00000000000000000 ) ) ;
#214 = AXIS2_PLACEMENT_3D ( 'NONE', #156, #188, #183 ) ;
#215 = PERSON_AND_ORGANIZATION ( #143, #52 ) ;
#216 = DIRECTION ( 'NONE',  ( 1.000000000000000000, 0.0000000000000000000, 0.0000000000000000000 ) ) ;
#217 = COORDINATED_UNIVERSAL_TIME_OFFSET ( 1, 0, .AHEAD. ) ;
#218 = CARTESIAN_POINT ( 'NONE',  ( 8.091990142142894843E-15, -0.5181483474218605556, 2.317638090205028423 ) ) ;
#219 = EDGE_CURVE ( 'NONE', #83, #83, #17, .T. ) ;
#220 = PERSON_AND_ORGANIZATION ( #143, #52 ) ;
#221 = CIRCLE ( 'NONE', #209, 0.5181483474218602225 ) ;
#222 = ORIENTED_EDGE ( 'NONE', *, *, #84, .T. ) ;
#223 = APPROVAL ( #235, 'UNSPECIFIED' ) ;
#224 = DIRECTION ( 'NONE',  ( 0.0000000000000000000, -1.000000000000000000, 0.0000000000000000000 ) ) ;
#225 = DIRECTION ( 'NONE',  ( -4.256963957985702758E-31, -1.000000000000000000, -1.219242935835426903E-16 ) ) ;
#226 = DIRECTION ( 'NONE',  ( 0.0000000000000000000, -1.000000000000000000, 0.0000000000000000000 ) ) ;
#227 = DIRECTION ( 'NONE',  ( 3.491481338843133355E-15, -1.219242935835426903E-16, 1.000000000000000000 ) ) ;
#228 = AXIS2_PLACEMENT_3D ( 'NONE', #150, #24, #224 ) ;
#229 = CARTESIAN_POINT ( 'NONE',  ( 1.316288464743861212E-13, -4.616918432785521081E-15, 37.69999999999999574 ) ) ;
#230 =( NAMED_UNIT ( * ) PLANE_ANGLE_UNIT ( ) SI_UNIT ( $, .RADIAN. ) );
#231 = APPROVAL_ROLE ( '' ) ;
#232 = CC_DESIGN_SECURITY_CLASSIFICATION ( #64, ( #23 ) ) ;
#233 = CARTESIAN_POINT ( 'NONE',  ( -3.162412871463503047E-30, -0.4499999999999999001, -9.057510450596698184E-16 ) ) ;
#234 =( NAMED_UNIT ( * ) SI_UNIT ( $, .STERADIAN. ) SOLID_ANGLE_UNIT ( ) );
#235 = APPROVAL_STATUS ( 'not_yet_approved' ) ;
#236 = AXIS2_PLACEMENT_3D ( 'NONE', #242, #78, #226 ) ;
#237 = ORIENTED_EDGE ( 'NONE', *, *, #84, .F. ) ;
#238 = ORIENTED_EDGE ( 'NONE', *, *, #61, .T. ) ;
#239 = SHAPE_DEFINITION_REPRESENTATION ( #205, #55 ) ;
#240 = EDGE_LOOP ( 'NONE', ( #106 ) ) ;
#241 = APPROVAL ( #116, 'UNSPECIFIED' ) ;
#242 = CARTESIAN_POINT ( 'NONE',  ( 3.391628167498962516E-14, -1.184373703562089466E-15, 9.714009150691161665 ) ) ;
#243 = DIRECTION ( 'NONE',  ( 3.491481338843133355E-15, -1.219242935835426903E-16, 1.000000000000000000 ) ) ;
ENDSEC;
END-ISO-10303-21;
