ISO-10303-21;
HEADER;
FILE_DESCRIPTION (( 'STEP AP203' ),
    '1' );
FILE_NAME ('35244.step',
    '2021-11-01T09:16:03',
    ( '' ),
    ( '' ),
    'SwSTEP 2.0',
    'SolidWorks 2019',
    '' );
FILE_SCHEMA (( 'CONFIG_CONTROL_DESIGN' ));
ENDSEC;

DATA;
#1 = CYLINDRICAL_SURFACE ( 'NONE', #126, 0.4000000000000001887 ) ;
#2 = CONICAL_SURFACE ( 'NONE', #160, 2.499999999999994671, 0.2617993877991428020 ) ;
#3 = CARTESIAN_POINT ( 'NONE',  ( 7.393693874374268172E-15, -2.581915282138505196E-16, 2.117638090205028245 ) ) ;
#4 = DIRECTION ( 'NONE',  ( 0.0000000000000000000, -1.000000000000000000, 0.0000000000000000000 ) ) ;
#5 = AXIS2_PLACEMENT_3D ( 'NONE', #91, #40, #183 ) ;
#6 = ORIENTED_EDGE ( 'NONE', *, *, #197, .F. ) ;
#7 =( NAMED_UNIT ( * ) PLANE_ANGLE_UNIT ( ) SI_UNIT ( $, .RADIAN. ) );
#8 = APPROVAL_DATE_TIME ( #101, #24 ) ;
#9 = PLANE ( 'NONE',  #239 ) ;
#10 = CARTESIAN_POINT ( 'NONE',  ( 7.393693874374268172E-15, -0.4681483474218607332, 2.117638090205028245 ) ) ;
#11 = EDGE_LOOP ( 'NONE', ( #116 ) ) ;
#12 = CC_DESIGN_PERSON_AND_ORGANIZATION_ASSIGNMENT ( #48, #121, ( #190 ) ) ;
#13 = DATE_AND_TIME ( #82, #96 ) ;
#14 = ADVANCED_FACE ( 'NONE', ( #208, #176 ), #196, .T. ) ;
#15 = AXIS2_PLACEMENT_3D ( 'NONE', #85, #156, #195 ) ;
#16 = AXIS2_PLACEMENT_3D ( 'NONE', #212, #66, #103 ) ;
#17 = PERSON_AND_ORGANIZATION_ROLE ( 'design_supplier' ) ;
#18 = DIRECTION ( 'NONE',  ( -4.275831445896958607E-31, -1.000000000000000000, -1.224646799147353207E-16 ) ) ;
#19 = DIRECTION ( 'NONE',  ( 3.491481338843133355E-15, -1.219242935835426903E-16, 1.000000000000000000 ) ) ;
#20 = APPLICATION_CONTEXT ( 'configuration controlled 3d designs of mechanical parts and assemblies' ) ;
#21 = PRODUCT_DEFINITION_SHAPE ( 'NONE', 'NONE',  #54 ) ;
#22 = EDGE_LOOP ( 'NONE', ( #202 ) ) ;
#23 = DATE_TIME_ROLE ( 'creation_date' ) ;
#24 = APPROVAL ( #180, 'UNSPECIFIED' ) ;
#25 =( NAMED_UNIT ( * ) SI_UNIT ( $, .STERADIAN. ) SOLID_ANGLE_UNIT ( ) );
#26 = CARTESIAN_POINT ( 'NONE',  ( 1.326762908760390423E-13, -4.653657836759941941E-15, 38.00000000000000000 ) ) ;
#27 = CARTESIAN_POINT ( 'NONE',  ( 5.586370142149011002E-15, -0.4000000000000006328, 1.599999999999999201 ) ) ;
#28 = DIRECTION ( 'NONE',  ( -4.275831445896958607E-31, -1.000000000000000000, -1.224646799147353207E-16 ) ) ;
#29 = CC_DESIGN_DATE_AND_TIME_ASSIGNMENT ( #220, #89, ( #209 ) ) ;
#30 = APPLICATION_PROTOCOL_DEFINITION ( 'international standard', 'config_control_design', 1994, #115 ) ;
#31 = CARTESIAN_POINT ( 'NONE',  ( 1.326762908760390423E-13, 8.998558695971044381E-33, 38.00000000000000000 ) ) ;
#32 = AXIS2_PLACEMENT_3D ( 'NONE', #139, #211, #33 ) ;
#33 = DIRECTION ( 'NONE',  ( -4.256963957985715019E-31, -1.000000000000000000, -1.219242935835425917E-16 ) ) ;
#34 = PLANE ( 'NONE',  #35 ) ;
#35 = AXIS2_PLACEMENT_3D ( 'NONE', #106, #182, #18 ) ;
#36 = CALENDAR_DATE ( 2021, 1, 11 ) ;
#37 = DIRECTION ( 'NONE',  ( -4.275831445896958607E-31, -1.000000000000000000, -1.224646799147353207E-16 ) ) ;
#38 = ADVANCED_FACE ( 'NONE', ( #213 ), #122, .T. ) ;
#39 = AXIS2_PLACEMENT_3D ( 'NONE', #167, #221, #4 ) ;
#40 = DIRECTION ( 'NONE',  ( -3.491481338843133355E-15, 1.224646799147353207E-16, -1.000000000000000000 ) ) ;
#41 = EDGE_LOOP ( 'NONE', ( #45 ) ) ;
#42 = PERSON_AND_ORGANIZATION ( #169, #77 ) ;
#43 = EDGE_LOOP ( 'NONE', ( #201 ) ) ;
#44 = TOROIDAL_SURFACE ( 'NONE', #15, 2.400000000000000355, 2.000000000000000000 ) ;
#45 = ORIENTED_EDGE ( 'NONE', *, *, #206, .T. ) ;
#46 = CIRCLE ( 'NONE', #32, 0.3999999999999999667 ) ;
#47 = CIRCLE ( 'NONE', #39, 1.499999999999993783 ) ;
#48 = PERSON_AND_ORGANIZATION ( #169, #77 ) ;
#49 = ADVANCED_FACE ( 'NONE', ( #235, #142 ), #44, .F. ) ;
#50 = CARTESIAN_POINT ( 'NONE',  ( 3.386950469473308119E-14, -1.182740227761917918E-15, 9.700611691069612519 ) ) ;
#51 = VERTEX_POINT ( 'NONE', #238 ) ;
#52 = APPROVAL_STATUS ( 'not_yet_approved' ) ;
#53 = APPROVAL_PERSON_ORGANIZATION ( #216, #150, #146 ) ;
#54 = PRODUCT_DEFINITION ( 'UNKNOWN', '', #190, #198 ) ;
#55 = PERSON_AND_ORGANIZATION ( #169, #77 ) ;
#56 = FACE_OUTER_BOUND ( 'NONE', #78, .T. ) ;
#57 = AXIS2_PLACEMENT_3D ( 'NONE', #83, #233, #65 ) ;
#58 = FACE_OUTER_BOUND ( 'NONE', #153, .T. ) ;
#59 = ORIENTED_EDGE ( 'NONE', *, *, #162, .F. ) ;
#60 = AXIS2_PLACEMENT_3D ( 'NONE', #69, #19, #90 ) ;
#61 = VERTEX_POINT ( 'NONE', #125 ) ;
#62 = EDGE_LOOP ( 'NONE', ( #6 ) ) ;
#63 = ADVANCED_FACE ( 'NONE', ( #192, #67 ), #2, .T. ) ;
#64 = CALENDAR_DATE ( 2021, 1, 11 ) ;
#65 = DIRECTION ( 'NONE',  ( 0.0000000000000000000, -1.000000000000000000, 0.0000000000000000000 ) ) ;
#66 = DIRECTION ( 'NONE',  ( 0.0000000000000000000, 0.0000000000000000000, 1.000000000000000000 ) ) ;
#67 = FACE_OUTER_BOUND ( 'NONE', #11, .T. ) ;
#68 = PERSON_AND_ORGANIZATION_ROLE ( 'design_owner' ) ;
#69 = CARTESIAN_POINT ( 'NONE',  ( 5.586370142149011002E-15, -1.950788697336681960E-16, 1.599999999999999201 ) ) ;
#70 = CARTESIAN_POINT ( 'NONE',  ( 1.316288464743861212E-13, 1.499999999999991340, 37.69999999999999574 ) ) ;
#71 = COORDINATED_UNIVERSAL_TIME_OFFSET ( 1, 0, .AHEAD. ) ;
#72 = DIRECTION ( 'NONE',  ( 3.491481338843133355E-15, -1.219242935835426903E-16, 1.000000000000000000 ) ) ;
#73 = CC_DESIGN_APPROVAL ( #150, ( #209 ) ) ;
#74 = ADVANCED_FACE ( 'NONE', ( #123 ), #9, .F. ) ;
#75 = PRODUCT ( '35244', '35244', '', ( #214 ) ) ;
#76 = DIRECTION ( 'NONE',  ( 3.491481338843133355E-15, -1.219242935835426903E-16, 1.000000000000000000 ) ) ;
#77 = ORGANIZATION ( 'UNSPECIFIED', 'UNSPECIFIED', '' ) ;
#78 = EDGE_LOOP ( 'NONE', ( #229 ) ) ;
#79 = EDGE_LOOP ( 'NONE', ( #97 ) ) ;
#80 =( LENGTH_UNIT ( ) NAMED_UNIT ( * ) SI_UNIT ( .MILLI., .METRE. ) );
#81 = EDGE_LOOP ( 'NONE', ( #231 ) ) ;
#82 = CALENDAR_DATE ( 2021, 1, 11 ) ;
#83 = CARTESIAN_POINT ( 'NONE',  ( 5.586370142149011002E-15, -1.950788697336681960E-16, 1.599999999999999201 ) ) ;
#84 = CALENDAR_DATE ( 2021, 1, 11 ) ;
#85 = CARTESIAN_POINT ( 'NONE',  ( 5.586370142149011002E-15, 0.0000000000000000000, 1.599999999999999201 ) ) ;
#86 = VERTEX_POINT ( 'NONE', #193 ) ;
#87 = PERSON_AND_ORGANIZATION ( #169, #77 ) ;
#88 = APPROVAL_PERSON_ORGANIZATION ( #87, #203, #236 ) ;
#89 = DATE_TIME_ROLE ( 'classification_date' ) ;
#90 = DIRECTION ( 'NONE',  ( 0.0000000000000000000, -1.000000000000000000, 0.0000000000000000000 ) ) ;
#91 = CARTESIAN_POINT ( 'NONE',  ( 0.0000000000000000000, 0.0000000000000000000, 0.0000000000000000000 ) ) ;
#92 = EDGE_LOOP ( 'NONE', ( #186 ) ) ;
#93 = EDGE_CURVE ( 'NONE', #152, #152, #135, .T. ) ;
#94 = ORIENTED_EDGE ( 'NONE', *, *, #114, .T. ) ;
#95 = PERSON_AND_ORGANIZATION_ROLE ( 'creator' ) ;
#96 = LOCAL_TIME ( 10, 16, 3.000000000000000000, #157 ) ;
#97 = ORIENTED_EDGE ( 'NONE', *, *, #158, .T. ) ;
#98 = APPLICATION_PROTOCOL_DEFINITION ( 'international standard', 'config_control_design', 1994, #20 ) ;
#99 = DIRECTION ( 'NONE',  ( 3.491481338843133355E-15, -1.219242935835426903E-16, 1.000000000000000000 ) ) ;
#100 = DIRECTION ( 'NONE',  ( 3.491481338843133355E-15, -1.224646799147353207E-16, 1.000000000000000000 ) ) ;
#101 = DATE_AND_TIME ( #64, #136 ) ;
#102 = DIRECTION ( 'NONE',  ( 4.275831445896958607E-31, 1.000000000000000000, 1.224646799147353207E-16 ) ) ;
#103 = DIRECTION ( 'NONE',  ( 1.000000000000000000, 0.0000000000000000000, 0.0000000000000000000 ) ) ;
#104 = UNCERTAINTY_MEASURE_WITH_UNIT (LENGTH_MEASURE( 1.000000000000000082E-05 ), #80, 'distance_accuracy_value', 'NONE');
#105 = APPROVAL_DATE_TIME ( #129, #150 ) ;
#106 = CARTESIAN_POINT ( 'NONE',  ( -1.068955699180124799E-30, 3.749391872347842254E-32, -3.061610804811898009E-16 ) ) ;
#107 = CALENDAR_DATE ( 2021, 1, 11 ) ;
#108 = DIRECTION ( 'NONE',  ( 0.0000000000000000000, 1.000000000000000000, 0.0000000000000000000 ) ) ;
#109 = CIRCLE ( 'NONE', #144, 1.499999999999996003 ) ;
#110 = CARTESIAN_POINT ( 'NONE',  ( 5.586370142149013368E-15, -2.312964634635748873E-16, 1.599999999999999867 ) ) ;
#111 = CC_DESIGN_PERSON_AND_ORGANIZATION_ASSIGNMENT ( #55, #241, ( #209 ) ) ;
#112 = PLANE ( 'NONE',  #228 ) ;
#113 = APPROVAL_ROLE ( '' ) ;
#114 = EDGE_CURVE ( 'NONE', #86, #86, #46, .T. ) ;
#115 = APPLICATION_CONTEXT ( 'configuration controlled 3d designs of mechanical parts and assemblies' ) ;
#116 = ORIENTED_EDGE ( 'NONE', *, *, #197, .T. ) ;
#117 = EDGE_LOOP ( 'NONE', ( #151 ) ) ;
#118 = AXIS2_PLACEMENT_3D ( 'NONE', #26, #179, #194 ) ;
#119 = COORDINATED_UNIVERSAL_TIME_OFFSET ( 1, 0, .AHEAD. ) ;
#120 = CARTESIAN_POINT ( 'NONE',  ( 5.586370142149013368E-15, -2.312964634635748873E-16, 1.599999999999999867 ) ) ;
#121 = PERSON_AND_ORGANIZATION_ROLE ( 'creator' ) ;
#122 = PLANE ( 'NONE',  #170 ) ;
#123 = FACE_OUTER_BOUND ( 'NONE', #43, .T. ) ;
#124 = EDGE_CURVE ( 'NONE', #155, #155, #163, .T. ) ;
#125 = CARTESIAN_POINT ( 'NONE',  ( 2.083911894449154393E-14, -1.499999999999994449, 5.968560883500632741 ) ) ;
#126 = AXIS2_PLACEMENT_3D ( 'NONE', #222, #72, #131 ) ;
#127 = PERSON_AND_ORGANIZATION ( #169, #77 ) ;
#128 = CYLINDRICAL_SURFACE ( 'NONE', #5, 1.499999999999993783 ) ;
#129 = DATE_AND_TIME ( #107, #240 ) ;
#130 = ADVANCED_BREP_SHAPE_REPRESENTATION ( '35244', ( #141, #226, #16 ), #168 ) ;
#131 = DIRECTION ( 'NONE',  ( -4.256963957985708013E-31, -1.000000000000000000, -1.219242935835426903E-16 ) ) ;
#132 = FACE_OUTER_BOUND ( 'NONE', #81, .T. ) ;
#133 = ADVANCED_FACE ( 'NONE', ( #161, #56 ), #1, .T. ) ;
#134 = ORIENTED_EDGE ( 'NONE', *, *, #124, .T. ) ;
#135 = CIRCLE ( 'NONE', #57, 0.4000000000000004108 ) ;
#136 = LOCAL_TIME ( 10, 16, 3.000000000000000000, #119 ) ;
#137 = COORDINATED_UNIVERSAL_TIME_OFFSET ( 1, 0, .AHEAD. ) ;
#138 = LOCAL_TIME ( 10, 16, 3.000000000000000000, #71 ) ;
#139 = CARTESIAN_POINT ( 'NONE',  ( -2.949564673564217733E-30, 1.030002896485328422E-31, -8.447888982678984733E-16 ) ) ;
#140 = CC_DESIGN_PERSON_AND_ORGANIZATION_ASSIGNMENT ( #207, #68, ( #75 ) ) ;
#141 = MANIFOLD_SOLID_BREP ( 'Corps-Déplacer/Copier1[1]', #181 ) ;
#142 = FACE_OUTER_BOUND ( 'NONE', #22, .T. ) ;
#143 = APPROVAL_DATE_TIME ( #210, #203 ) ;
#144 = AXIS2_PLACEMENT_3D ( 'NONE', #165, #149, #148 ) ;
#145 = PRODUCT_RELATED_PRODUCT_CATEGORY ( 'detail', '', ( #75 ) ) ;
#146 = APPROVAL_ROLE ( '' ) ;
#147 = CLOSED_SHELL ( 'NONE', ( #38, #133, #237 ) ) ;
#148 = DIRECTION ( 'NONE',  ( 0.0000000000000000000, 1.000000000000000000, 0.0000000000000000000 ) ) ;
#149 = DIRECTION ( 'NONE',  ( -3.491481338843133355E-15, 1.224646799147353207E-16, -1.000000000000000000 ) ) ;
#150 = APPROVAL ( #52, 'UNSPECIFIED' ) ;
#151 = ORIENTED_EDGE ( 'NONE', *, *, #93, .T. ) ;
#152 = VERTEX_POINT ( 'NONE', #27 ) ;
#153 = EDGE_LOOP ( 'NONE', ( #185 ) ) ;
#154 = DIRECTION ( 'NONE',  ( -3.491481338843133355E-15, 1.224646799147353207E-16, -1.000000000000000000 ) ) ;
#155 = VERTEX_POINT ( 'NONE', #189 ) ;
#156 = DIRECTION ( 'NONE',  ( 3.491481338843133355E-15, -1.219242935835426903E-16, 1.000000000000000000 ) ) ;
#157 = COORDINATED_UNIVERSAL_TIME_OFFSET ( 1, 0, .AHEAD. ) ;
#158 = EDGE_CURVE ( 'NONE', #51, #51, #227, .T. ) ;
#159 = SECURITY_CLASSIFICATION_LEVEL ( 'unclassified' ) ;
#160 = AXIS2_PLACEMENT_3D ( 'NONE', #50, #99, #174 ) ;
#161 = FACE_OUTER_BOUND ( 'NONE', #204, .T. ) ;
#162 = EDGE_CURVE ( 'NONE', #230, #230, #109, .T. ) ;
#163 = CIRCLE ( 'NONE', #60, 0.4000000000000004108 ) ;
#164 = LOCAL_TIME ( 10, 16, 3.000000000000000000, #137 ) ;
#165 = CARTESIAN_POINT ( 'NONE',  ( 1.316288464743861212E-13, -4.616918432785521081E-15, 37.69999999999999574 ) ) ;
#166 = FACE_OUTER_BOUND ( 'NONE', #62, .T. ) ;
#167 = CARTESIAN_POINT ( 'NONE',  ( 2.083911894449154393E-14, -7.277125694311799883E-16, 5.968560883500632741 ) ) ;
#168 =( GEOMETRIC_REPRESENTATION_CONTEXT ( 3 ) GLOBAL_UNCERTAINTY_ASSIGNED_CONTEXT ( ( #104 ) ) GLOBAL_UNIT_ASSIGNED_CONTEXT ( ( #80, #7, #25 ) ) REPRESENTATION_CONTEXT ( 'NONE', 'WORKASPACE' ) );
#169 = PERSON ( 'UNSPECIFIED', 'UNSPECIFIED', 'UNSPECIFIED', ('UNSPECIFIED'), ('UNSPECIFIED'), ('UNSPECIFIED') ) ;
#170 = AXIS2_PLACEMENT_3D ( 'NONE', #120, #100, #28 ) ;
#171 = CC_DESIGN_APPROVAL ( #24, ( #54 ) ) ;
#172 = VERTEX_POINT ( 'NONE', #10 ) ;
#173 = EDGE_LOOP ( 'NONE', ( #59 ) ) ;
#174 = DIRECTION ( 'NONE',  ( 0.0000000000000000000, -1.000000000000000000, 0.0000000000000000000 ) ) ;
#175 = ADVANCED_FACE ( 'NONE', ( #219 ), #112, .F. ) ;
#176 = FACE_BOUND ( 'NONE', #79, .T. ) ;
#177 = PERSON_AND_ORGANIZATION ( #169, #77 ) ;
#178 = APPROVAL_PERSON_ORGANIZATION ( #42, #24, #113 ) ;
#179 = DIRECTION ( 'NONE',  ( -3.491481338843133355E-15, 1.224646799147353207E-16, -1.000000000000000000 ) ) ;
#180 = APPROVAL_STATUS ( 'not_yet_approved' ) ;
#181 = CLOSED_SHELL ( 'NONE', ( #191, #14, #74, #63, #49, #175 ) ) ;
#182 = DIRECTION ( 'NONE',  ( 3.491481338843133355E-15, -1.224646799147353207E-16, 1.000000000000000000 ) ) ;
#183 = DIRECTION ( 'NONE',  ( 4.275831445896958607E-31, 1.000000000000000000, 1.224646799147353207E-16 ) ) ;
#184 = DIRECTION ( 'NONE',  ( 3.491481338843133355E-15, -1.224646799147353207E-16, 1.000000000000000000 ) ) ;
#185 = ORIENTED_EDGE ( 'NONE', *, *, #114, .F. ) ;
#186 = ORIENTED_EDGE ( 'NONE', *, *, #124, .F. ) ;
#187 = CIRCLE ( 'NONE', #205, 0.4681483474218604557 ) ;
#188 = CC_DESIGN_DATE_AND_TIME_ASSIGNMENT ( #13, #23, ( #54 ) ) ;
#189 = CARTESIAN_POINT ( 'NONE',  ( 5.586370142149011002E-15, -0.4000000000000006328, 1.599999999999999201 ) ) ;
#190 = PRODUCT_DEFINITION_FORMATION_WITH_SPECIFIED_SOURCE ( 'ANY', '', #75, .NOT_KNOWN. ) ;
#191 = ADVANCED_FACE ( 'NONE', ( #132, #166 ), #128, .T. ) ;
#192 = FACE_BOUND ( 'NONE', #41, .T. ) ;
#193 = CARTESIAN_POINT ( 'NONE',  ( -3.119843231883646544E-30, -0.3999999999999999667, -8.935586157013156085E-16 ) ) ;
#194 = DIRECTION ( 'NONE',  ( 0.0000000000000000000, 1.000000000000000000, 0.0000000000000000000 ) ) ;
#195 = DIRECTION ( 'NONE',  ( -4.317316899811298644E-31, -1.000000000000000000, -1.219242935835426903E-16 ) ) ;
#196 = CONICAL_SURFACE ( 'NONE', #118, 1.199999999999995515, 0.7853981633974461696 ) ;
#197 = EDGE_CURVE ( 'NONE', #61, #61, #47, .T. ) ;
#198 = DESIGN_CONTEXT ( 'detailed design', #115, 'design' ) ;
#199 = CC_DESIGN_PERSON_AND_ORGANIZATION_ASSIGNMENT ( #127, #17, ( #190 ) ) ;
#200 = DIRECTION ( 'NONE',  ( -3.491481338843133355E-15, 1.224646799147353207E-16, -1.000000000000000000 ) ) ;
#201 = ORIENTED_EDGE ( 'NONE', *, *, #158, .F. ) ;
#202 = ORIENTED_EDGE ( 'NONE', *, *, #206, .F. ) ;
#203 = APPROVAL ( #232, 'UNSPECIFIED' ) ;
#204 = EDGE_LOOP ( 'NONE', ( #94 ) ) ;
#205 = AXIS2_PLACEMENT_3D ( 'NONE', #3, #76, #224 ) ;
#206 = EDGE_CURVE ( 'NONE', #172, #172, #187, .T. ) ;
#207 = PERSON_AND_ORGANIZATION ( #169, #77 ) ;
#208 = FACE_OUTER_BOUND ( 'NONE', #173, .T. ) ;
#209 = SECURITY_CLASSIFICATION ( '', '', #159 ) ;
#210 = DATE_AND_TIME ( #84, #164 ) ;
#211 = DIRECTION ( 'NONE',  ( 3.491481338843133355E-15, -1.219242935835426903E-16, 1.000000000000000000 ) ) ;
#212 = CARTESIAN_POINT ( 'NONE',  ( 0.0000000000000000000, 0.0000000000000000000, 0.0000000000000000000 ) ) ;
#213 = FACE_OUTER_BOUND ( 'NONE', #117, .T. ) ;
#214 = MECHANICAL_CONTEXT ( 'NONE', #20, 'mechanical' ) ;
#215 = AXIS2_PLACEMENT_3D ( 'NONE', #243, #200, #108 ) ;
#216 = PERSON_AND_ORGANIZATION ( #169, #77 ) ;
#217 = COORDINATED_UNIVERSAL_TIME_OFFSET ( 1, 0, .AHEAD. ) ;
#218 = CC_DESIGN_PERSON_AND_ORGANIZATION_ASSIGNMENT ( #177, #95, ( #54 ) ) ;
#219 = FACE_OUTER_BOUND ( 'NONE', #92, .T. ) ;
#220 = DATE_AND_TIME ( #36, #138 ) ;
#221 = DIRECTION ( 'NONE',  ( -3.491481338843133355E-15, 1.219242935835426903E-16, -1.000000000000000000 ) ) ;
#222 = CARTESIAN_POINT ( 'NONE',  ( 0.0000000000000000000, 0.0000000000000000000, 0.0000000000000000000 ) ) ;
#223 = CC_DESIGN_APPROVAL ( #203, ( #190 ) ) ;
#224 = DIRECTION ( 'NONE',  ( 0.0000000000000000000, -1.000000000000000000, 0.0000000000000000000 ) ) ;
#225 = EDGE_LOOP ( 'NONE', ( #134 ) ) ;
#226 = MANIFOLD_SOLID_BREP ( 'Corps-Déplacer/Copier1[2]', #147 ) ;
#227 = CIRCLE ( 'NONE', #215, 1.199999999999995515 ) ;
#228 = AXIS2_PLACEMENT_3D ( 'NONE', #110, #184, #37 ) ;
#229 = ORIENTED_EDGE ( 'NONE', *, *, #93, .F. ) ;
#230 = VERTEX_POINT ( 'NONE', #70 ) ;
#231 = ORIENTED_EDGE ( 'NONE', *, *, #162, .T. ) ;
#232 = APPROVAL_STATUS ( 'not_yet_approved' ) ;
#233 = DIRECTION ( 'NONE',  ( 3.491481338843133355E-15, -1.219242935835426903E-16, 1.000000000000000000 ) ) ;
#234 = CC_DESIGN_SECURITY_CLASSIFICATION ( #209, ( #190 ) ) ;
#235 = FACE_OUTER_BOUND ( 'NONE', #225, .T. ) ;
#236 = APPROVAL_ROLE ( '' ) ;
#237 = ADVANCED_FACE ( 'NONE', ( #58 ), #34, .F. ) ;
#238 = CARTESIAN_POINT ( 'NONE',  ( 1.326762908760390423E-13, 1.199999999999991074, 38.00000000000000000 ) ) ;
#239 = AXIS2_PLACEMENT_3D ( 'NONE', #31, #154, #102 ) ;
#240 = LOCAL_TIME ( 10, 16, 3.000000000000000000, #217 ) ;
#241 = PERSON_AND_ORGANIZATION_ROLE ( 'classification_officer' ) ;
#242 = SHAPE_DEFINITION_REPRESENTATION ( #21, #130 ) ;
#243 = CARTESIAN_POINT ( 'NONE',  ( 1.326762908760390423E-13, -4.653657836759941941E-15, 38.00000000000000000 ) ) ;
ENDSEC;
END-ISO-10303-21;
