ISO-10303-21;
HEADER;
FILE_DESCRIPTION (( 'STEP AP203' ),
    '1' );
FILE_NAME ('35243.step',
    '2021-11-01T09:16:02',
    ( '' ),
    ( '' ),
    'SwSTEP 2.0',
    'SolidWorks 2019',
    '' );
FILE_SCHEMA (( 'CONFIG_CONTROL_DESIGN' ));
ENDSEC;

DATA;
#1 = ORIENTED_EDGE ( 'NONE', *, *, #118, .T. ) ;
#2 = DIRECTION ( 'NONE',  ( -3.491481338843133355E-15, 1.224646799147353207E-16, -1.000000000000000000 ) ) ;
#3 = ORGANIZATION ( 'UNSPECIFIED', 'UNSPECIFIED', '' ) ;
#4 = DATE_AND_TIME ( #205, #28 ) ;
#5 = CARTESIAN_POINT ( 'NONE',  ( -1.068955699180124799E-30, 3.749391872347842254E-32, -3.061610804811898009E-16 ) ) ;
#6 = EDGE_CURVE ( 'NONE', #198, #198, #151, .T. ) ;
#7 = PERSON_AND_ORGANIZATION_ROLE ( 'creator' ) ;
#8 = DIRECTION ( 'NONE',  ( 3.491481338843133355E-15, -1.224646799147353207E-16, 1.000000000000000000 ) ) ;
#9 = CARTESIAN_POINT ( 'NONE',  ( 1.326762908760390423E-13, -4.653657836759941941E-15, 38.00000000000000000 ) ) ;
#10 = AXIS2_PLACEMENT_3D ( 'NONE', #105, #26, #101 ) ;
#11 = FACE_OUTER_BOUND ( 'NONE', #40, .T. ) ;
#12 = EDGE_CURVE ( 'NONE', #126, #126, #113, .T. ) ;
#13 = DATE_AND_TIME ( #46, #63 ) ;
#14 = AXIS2_PLACEMENT_3D ( 'NONE', #31, #164, #42 ) ;
#15 = PERSON_AND_ORGANIZATION ( #222, #3 ) ;
#16 = CC_DESIGN_SECURITY_CLASSIFICATION ( #207, ( #69 ) ) ;
#17 = COORDINATED_UNIVERSAL_TIME_OFFSET ( 1, 0, .AHEAD. ) ;
#18 = DIRECTION ( 'NONE',  ( -3.491481338843133355E-15, 1.224646799147353207E-16, -1.000000000000000000 ) ) ;
#19 = AXIS2_PLACEMENT_3D ( 'NONE', #124, #2, #233 ) ;
#20 = EDGE_LOOP ( 'NONE', ( #242 ) ) ;
#21 = EDGE_LOOP ( 'NONE', ( #188 ) ) ;
#22 = ORIENTED_EDGE ( 'NONE', *, *, #118, .F. ) ;
#23 = EDGE_LOOP ( 'NONE', ( #114 ) ) ;
#24 = ORIENTED_EDGE ( 'NONE', *, *, #12, .F. ) ;
#25 = PRODUCT_DEFINITION_SHAPE ( 'NONE', 'NONE',  #149 ) ;
#26 = DIRECTION ( 'NONE',  ( 3.491481338843133355E-15, -1.219242935835426903E-16, 1.000000000000000000 ) ) ;
#27 = PLANE ( 'NONE',  #189 ) ;
#28 = LOCAL_TIME ( 10, 16, 2.000000000000000000, #228 ) ;
#29 = SECURITY_CLASSIFICATION_LEVEL ( 'unclassified' ) ;
#30 = FACE_OUTER_BOUND ( 'NONE', #21, .T. ) ;
#31 = CARTESIAN_POINT ( 'NONE',  ( 4.888073874380383542E-15, -1.706940110169596530E-16, 1.399999999999999023 ) ) ;
#32 = CARTESIAN_POINT ( 'NONE',  ( 1.326762908760390423E-13, 8.998558695971044381E-33, 38.00000000000000000 ) ) ;
#33 = ADVANCED_FACE ( 'NONE', ( #43 ), #196, .T. ) ;
#34 = CARTESIAN_POINT ( 'NONE',  ( 1.326762908760390423E-13, 1.199999999999991074, 38.00000000000000000 ) ) ;
#35 = DIRECTION ( 'NONE',  ( 0.0000000000000000000, 0.0000000000000000000, 1.000000000000000000 ) ) ;
#36 = APPROVAL_ROLE ( '' ) ;
#37 = CLOSED_SHELL ( 'NONE', ( #33, #130, #236 ) ) ;
#38 = CARTESIAN_POINT ( 'NONE',  ( 4.888073874380383542E-15, -0.3500000000000003664, 1.399999999999999023 ) ) ;
#39 = APPROVAL_STATUS ( 'not_yet_approved' ) ;
#40 = EDGE_LOOP ( 'NONE', ( #135 ) ) ;
#41 = ORIENTED_EDGE ( 'NONE', *, *, #111, .T. ) ;
#42 = DIRECTION ( 'NONE',  ( 0.0000000000000000000, -1.000000000000000000, 0.0000000000000000000 ) ) ;
#43 = FACE_OUTER_BOUND ( 'NONE', #191, .T. ) ;
#44 = DIRECTION ( 'NONE',  ( 0.0000000000000000000, 1.000000000000000000, 0.0000000000000000000 ) ) ;
#45 = DIRECTION ( 'NONE',  ( 3.491481338843133355E-15, -1.224646799147353207E-16, 1.000000000000000000 ) ) ;
#46 = CALENDAR_DATE ( 2021, 1, 11 ) ;
#47 = AXIS2_PLACEMENT_3D ( 'NONE', #64, #179, #147 ) ;
#48 =( GEOMETRIC_REPRESENTATION_CONTEXT ( 3 ) GLOBAL_UNCERTAINTY_ASSIGNED_CONTEXT ( ( #86 ) ) GLOBAL_UNIT_ASSIGNED_CONTEXT ( ( #71, #166, #50 ) ) REPRESENTATION_CONTEXT ( 'NONE', 'WORKASPACE' ) );
#49 = EDGE_CURVE ( 'NONE', #110, #110, #123, .T. ) ;
#50 =( NAMED_UNIT ( * ) SI_UNIT ( $, .STERADIAN. ) SOLID_ANGLE_UNIT ( ) );
#51 = CIRCLE ( 'NONE', #163, 1.199999999999995515 ) ;
#52 = PERSON_AND_ORGANIZATION_ROLE ( 'design_owner' ) ;
#53 = DATE_AND_TIME ( #155, #80 ) ;
#54 = EDGE_LOOP ( 'NONE', ( #1 ) ) ;
#55 = LOCAL_TIME ( 10, 16, 2.000000000000000000, #17 ) ;
#56 = ORIENTED_EDGE ( 'NONE', *, *, #187, .T. ) ;
#57 = EDGE_LOOP ( 'NONE', ( #41 ) ) ;
#58 = APPROVAL_DATE_TIME ( #168, #153 ) ;
#59 = FACE_OUTER_BOUND ( 'NONE', #98, .T. ) ;
#60 = FACE_OUTER_BOUND ( 'NONE', #20, .T. ) ;
#61 = DIRECTION ( 'NONE',  ( 3.491481338843133355E-15, -1.219242935835426903E-16, 1.000000000000000000 ) ) ;
#62 = AXIS2_PLACEMENT_3D ( 'NONE', #82, #8, #106 ) ;
#63 = LOCAL_TIME ( 10, 16, 2.000000000000000000, #218 ) ;
#64 = CARTESIAN_POINT ( 'NONE',  ( 4.888073874380383542E-15, 0.0000000000000000000, 1.399999999999999023 ) ) ;
#65 = CC_DESIGN_PERSON_AND_ORGANIZATION_ASSIGNMENT ( #201, #52, ( #96 ) ) ;
#66 = DIRECTION ( 'NONE',  ( 4.275831445896958607E-31, 1.000000000000000000, 1.224646799147353207E-16 ) ) ;
#67 = APPROVAL_STATUS ( 'not_yet_approved' ) ;
#68 = AXIS2_PLACEMENT_3D ( 'NONE', #5, #104, #81 ) ;
#69 = PRODUCT_DEFINITION_FORMATION_WITH_SPECIFIED_SOURCE ( 'ANY', '', #96, .NOT_KNOWN. ) ;
#70 = PERSON_AND_ORGANIZATION_ROLE ( 'creator' ) ;
#71 =( LENGTH_UNIT ( ) NAMED_UNIT ( * ) SI_UNIT ( .MILLI., .METRE. ) );
#72 = MECHANICAL_CONTEXT ( 'NONE', #136, 'mechanical' ) ;
#73 = APPLICATION_PROTOCOL_DEFINITION ( 'international standard', 'config_control_design', 1994, #116 ) ;
#74 = ADVANCED_FACE ( 'NONE', ( #215, #178 ), #176, .T. ) ;
#75 = COORDINATED_UNIVERSAL_TIME_OFFSET ( 1, 0, .AHEAD. ) ;
#76 = CC_DESIGN_PERSON_AND_ORGANIZATION_ASSIGNMENT ( #190, #133, ( #69 ) ) ;
#77 = ORIENTED_EDGE ( 'NONE', *, *, #95, .F. ) ;
#78 = EDGE_LOOP ( 'NONE', ( #24 ) ) ;
#79 = CARTESIAN_POINT ( 'NONE',  ( 0.0000000000000000000, 0.0000000000000000000, 0.0000000000000000000 ) ) ;
#80 = LOCAL_TIME ( 10, 16, 2.000000000000000000, #75 ) ;
#81 = DIRECTION ( 'NONE',  ( -4.275831445896958607E-31, -1.000000000000000000, -1.224646799147353207E-16 ) ) ;
#82 = CARTESIAN_POINT ( 'NONE',  ( 4.888073874380385909E-15, -2.023844055306280203E-16, 1.399999999999999689 ) ) ;
#83 = CARTESIAN_POINT ( 'NONE',  ( 6.695397606605640712E-15, -2.338066694971420013E-16, 1.917638090205028067 ) ) ;
#84 = TOROIDAL_SURFACE ( 'NONE', #47, 2.350000000000000089, 2.000000000000000000 ) ;
#85 = DIRECTION ( 'NONE',  ( -4.256963957985710640E-31, -1.000000000000000000, -1.219242935835427642E-16 ) ) ;
#86 = UNCERTAINTY_MEASURE_WITH_UNIT (LENGTH_MEASURE( 1.000000000000000082E-05 ), #71, 'distance_accuracy_value', 'NONE');
#87 = CARTESIAN_POINT ( 'NONE',  ( 1.326762908760390423E-13, -4.653657836759941941E-15, 38.00000000000000000 ) ) ;
#88 = VERTEX_POINT ( 'NONE', #34 ) ;
#89 = DATE_TIME_ROLE ( 'creation_date' ) ;
#90 = ADVANCED_BREP_SHAPE_REPRESENTATION ( '35243', ( #140, #142, #175 ), #48 ) ;
#91 = COORDINATED_UNIVERSAL_TIME_OFFSET ( 1, 0, .AHEAD. ) ;
#92 = PRODUCT_RELATED_PRODUCT_CATEGORY ( 'detail', '', ( #96 ) ) ;
#93 = VERTEX_POINT ( 'NONE', #108 ) ;
#94 = APPROVAL_PERSON_ORGANIZATION ( #223, #153, #36 ) ;
#95 = EDGE_CURVE ( 'NONE', #93, #93, #115, .T. ) ;
#96 = PRODUCT ( '35243', '35243', '', ( #72 ) ) ;
#97 = ORIENTED_EDGE ( 'NONE', *, *, #12, .T. ) ;
#98 = EDGE_LOOP ( 'NONE', ( #211 ) ) ;
#99 = PERSON_AND_ORGANIZATION ( #222, #3 ) ;
#100 = CC_DESIGN_PERSON_AND_ORGANIZATION_ASSIGNMENT ( #120, #117, ( #207 ) ) ;
#101 = DIRECTION ( 'NONE',  ( -4.256963957985708889E-31, -1.000000000000000000, -1.219242935835426903E-16 ) ) ;
#102 = PLANE ( 'NONE',  #68 ) ;
#103 = AXIS2_PLACEMENT_3D ( 'NONE', #83, #122, #182 ) ;
#104 = DIRECTION ( 'NONE',  ( 3.491481338843133355E-15, -1.224646799147353207E-16, 1.000000000000000000 ) ) ;
#105 = CARTESIAN_POINT ( 'NONE',  ( 0.0000000000000000000, 0.0000000000000000000, 0.0000000000000000000 ) ) ;
#106 = DIRECTION ( 'NONE',  ( -4.275831445896958607E-31, -1.000000000000000000, -1.224646799147353207E-16 ) ) ;
#107 = AXIS2_PLACEMENT_3D ( 'NONE', #87, #18, #203 ) ;
#108 = CARTESIAN_POINT ( 'NONE',  ( 4.888073874380383542E-15, -0.3500000000000003664, 1.399999999999999023 ) ) ;
#109 = CC_DESIGN_APPROVAL ( #137, ( #149 ) ) ;
#110 = VERTEX_POINT ( 'NONE', #38 ) ;
#111 = EDGE_CURVE ( 'NONE', #88, #88, #51, .T. ) ;
#112 = EDGE_LOOP ( 'NONE', ( #225 ) ) ;
#113 = CIRCLE ( 'NONE', #219, 1.499999999999993783 ) ;
#114 = ORIENTED_EDGE ( 'NONE', *, *, #111, .F. ) ;
#115 = CIRCLE ( 'NONE', #14, 0.3500000000000001998 ) ;
#116 = APPLICATION_CONTEXT ( 'configuration controlled 3d designs of mechanical parts and assemblies' ) ;
#117 = PERSON_AND_ORGANIZATION_ROLE ( 'classification_officer' ) ;
#118 = EDGE_CURVE ( 'NONE', #235, #235, #227, .T. ) ;
#119 = CARTESIAN_POINT ( 'NONE',  ( 4.888073874380383542E-15, -1.706940110169596530E-16, 1.399999999999999023 ) ) ;
#120 = PERSON_AND_ORGANIZATION ( #222, #3 ) ;
#121 = CARTESIAN_POINT ( 'NONE',  ( 4.888073874380385909E-15, -2.023844055306280203E-16, 1.399999999999999689 ) ) ;
#122 = DIRECTION ( 'NONE',  ( 3.491481338843133355E-15, -1.219242935835426903E-16, 1.000000000000000000 ) ) ;
#123 = CIRCLE ( 'NONE', #237, 0.3500000000000001998 ) ;
#124 = CARTESIAN_POINT ( 'NONE',  ( 1.316288464743861212E-13, -4.616918432785521081E-15, 37.69999999999999574 ) ) ;
#125 = PLANE ( 'NONE',  #167 ) ;
#126 = VERTEX_POINT ( 'NONE', #200 ) ;
#127 = CC_DESIGN_DATE_AND_TIME_ASSIGNMENT ( #53, #224, ( #207 ) ) ;
#128 = APPROVAL_STATUS ( 'not_yet_approved' ) ;
#129 = CARTESIAN_POINT ( 'NONE',  ( 0.0000000000000000000, 0.0000000000000000000, 0.0000000000000000000 ) ) ;
#130 = ADVANCED_FACE ( 'NONE', ( #59, #141 ), #160, .T. ) ;
#131 = CONICAL_SURFACE ( 'NONE', #209, 2.499999999999994671, 0.2617993877991430240 ) ;
#132 = CALENDAR_DATE ( 2021, 1, 11 ) ;
#133 = PERSON_AND_ORGANIZATION_ROLE ( 'design_supplier' ) ;
#134 = CIRCLE ( 'NONE', #103, 0.4181483474218603003 ) ;
#135 = ORIENTED_EDGE ( 'NONE', *, *, #187, .F. ) ;
#136 = APPLICATION_CONTEXT ( 'configuration controlled 3d designs of mechanical parts and assemblies' ) ;
#137 = APPROVAL ( #67, 'UNSPECIFIED' ) ;
#138 = PERSON_AND_ORGANIZATION ( #222, #3 ) ;
#139 = EDGE_LOOP ( 'NONE', ( #77 ) ) ;
#140 = MANIFOLD_SOLID_BREP ( 'Corps-Déplacer/Copier1[1]', #174 ) ;
#141 = FACE_OUTER_BOUND ( 'NONE', #139, .T. ) ;
#142 = MANIFOLD_SOLID_BREP ( 'Corps-Déplacer/Copier1[2]', #37 ) ;
#143 = APPROVAL_ROLE ( '' ) ;
#144 = CC_DESIGN_PERSON_AND_ORGANIZATION_ASSIGNMENT ( #138, #7, ( #69 ) ) ;
#145 = FACE_OUTER_BOUND ( 'NONE', #172, .T. ) ;
#146 = DIRECTION ( 'NONE',  ( 0.0000000000000000000, -1.000000000000000000, 0.0000000000000000000 ) ) ;
#147 = DIRECTION ( 'NONE',  ( -4.318010611786305654E-31, -1.000000000000000000, -1.219242935835426903E-16 ) ) ;
#148 = DIRECTION ( 'NONE',  ( 3.491481338843133355E-15, -1.219242935835426903E-16, 1.000000000000000000 ) ) ;
#149 = PRODUCT_DEFINITION ( 'UNKNOWN', '', #69, #217 ) ;
#150 = CARTESIAN_POINT ( 'NONE',  ( 1.316288464743861212E-13, 1.499999999999991340, 37.69999999999999574 ) ) ;
#151 = CIRCLE ( 'NONE', #170, 0.3500000000000000333 ) ;
#152 = DATE_AND_TIME ( #132, #55 ) ;
#153 = APPROVAL ( #128, 'UNSPECIFIED' ) ;
#154 = FACE_BOUND ( 'NONE', #57, .T. ) ;
#155 = CALENDAR_DATE ( 2021, 1, 11 ) ;
#156 = AXIS2_PLACEMENT_3D ( 'NONE', #79, #193, #197 ) ;
#157 = CC_DESIGN_APPROVAL ( #153, ( #69 ) ) ;
#158 = ORIENTED_EDGE ( 'NONE', *, *, #95, .T. ) ;
#159 = APPROVAL_PERSON_ORGANIZATION ( #199, #137, #183 ) ;
#160 = CYLINDRICAL_SURFACE ( 'NONE', #10, 0.3500000000000001443 ) ;
#161 = DIRECTION ( 'NONE',  ( -3.491481338843133355E-15, 1.224646799147353207E-16, -1.000000000000000000 ) ) ;
#162 = CARTESIAN_POINT ( 'NONE',  ( 2.079234196423498734E-14, -7.260790936310083417E-16, 5.955163423879080931 ) ) ;
#163 = AXIS2_PLACEMENT_3D ( 'NONE', #9, #161, #44 ) ;
#164 = DIRECTION ( 'NONE',  ( 3.491481338843133355E-15, -1.219242935835426903E-16, 1.000000000000000000 ) ) ;
#165 = DIRECTION ( 'NONE',  ( -4.275831445896958607E-31, -1.000000000000000000, -1.224646799147353207E-16 ) ) ;
#166 =( NAMED_UNIT ( * ) PLANE_ANGLE_UNIT ( ) SI_UNIT ( $, .RADIAN. ) );
#167 = AXIS2_PLACEMENT_3D ( 'NONE', #121, #45, #165 ) ;
#168 = DATE_AND_TIME ( #185, #243 ) ;
#169 = CARTESIAN_POINT ( 'NONE',  ( 6.695397606605640712E-15, -0.4181483474218605223, 1.917638090205028067 ) ) ;
#170 = AXIS2_PLACEMENT_3D ( 'NONE', #173, #216, #85 ) ;
#171 = ADVANCED_FACE ( 'NONE', ( #213, #145 ), #131, .T. ) ;
#172 = EDGE_LOOP ( 'NONE', ( #97 ) ) ;
#173 = CARTESIAN_POINT ( 'NONE',  ( -2.928279853774289307E-30, 1.022570129802405524E-31, -8.386926835887214669E-16 ) ) ;
#174 = CLOSED_SHELL ( 'NONE', ( #74, #240, #226, #171, #204, #212 ) ) ;
#175 = AXIS2_PLACEMENT_3D ( 'NONE', #129, #35, #241 ) ;
#176 = CYLINDRICAL_SURFACE ( 'NONE', #156, 1.499999999999993783 ) ;
#177 = APPROVAL_DATE_TIME ( #4, #184 ) ;
#178 = FACE_OUTER_BOUND ( 'NONE', #78, .T. ) ;
#179 = DIRECTION ( 'NONE',  ( 3.491481338843133355E-15, -1.219242935835426903E-16, 1.000000000000000000 ) ) ;
#180 = DIRECTION ( 'NONE',  ( 0.0000000000000000000, -1.000000000000000000, 0.0000000000000000000 ) ) ;
#181 = CONICAL_SURFACE ( 'NONE', #107, 1.199999999999995515, 0.7853981633974461696 ) ;
#182 = DIRECTION ( 'NONE',  ( 0.0000000000000000000, -1.000000000000000000, 0.0000000000000000000 ) ) ;
#183 = APPROVAL_ROLE ( '' ) ;
#184 = APPROVAL ( #39, 'UNSPECIFIED' ) ;
#185 = CALENDAR_DATE ( 2021, 1, 11 ) ;
#186 = APPLICATION_PROTOCOL_DEFINITION ( 'international standard', 'config_control_design', 1994, #136 ) ;
#187 = EDGE_CURVE ( 'NONE', #220, #220, #134, .T. ) ;
#188 = ORIENTED_EDGE ( 'NONE', *, *, #49, .T. ) ;
#189 = AXIS2_PLACEMENT_3D ( 'NONE', #32, #234, #66 ) ;
#190 = PERSON_AND_ORGANIZATION ( #222, #3 ) ;
#191 = EDGE_LOOP ( 'NONE', ( #158 ) ) ;
#192 = EDGE_LOOP ( 'NONE', ( #56 ) ) ;
#193 = DIRECTION ( 'NONE',  ( -3.491481338843133355E-15, 1.224646799147353207E-16, -1.000000000000000000 ) ) ;
#194 = FACE_OUTER_BOUND ( 'NONE', #23, .T. ) ;
#195 = FACE_OUTER_BOUND ( 'NONE', #112, .T. ) ;
#196 = PLANE ( 'NONE',  #62 ) ;
#197 = DIRECTION ( 'NONE',  ( 4.275831445896958607E-31, 1.000000000000000000, 1.224646799147353207E-16 ) ) ;
#198 = VERTEX_POINT ( 'NONE', #239 ) ;
#199 = PERSON_AND_ORGANIZATION ( #222, #3 ) ;
#200 = CARTESIAN_POINT ( 'NONE',  ( 2.079234196423498734E-14, -1.499999999999994449, 5.955163423879080931 ) ) ;
#201 = PERSON_AND_ORGANIZATION ( #222, #3 ) ;
#202 = APPROVAL_PERSON_ORGANIZATION ( #99, #184, #143 ) ;
#203 = DIRECTION ( 'NONE',  ( 0.0000000000000000000, 1.000000000000000000, 0.0000000000000000000 ) ) ;
#204 = ADVANCED_FACE ( 'NONE', ( #30, #11 ), #84, .F. ) ;
#205 = CALENDAR_DATE ( 2021, 1, 11 ) ;
#206 = EDGE_LOOP ( 'NONE', ( #22 ) ) ;
#207 = SECURITY_CLASSIFICATION ( '', '', #29 ) ;
#208 = CC_DESIGN_PERSON_AND_ORGANIZATION_ASSIGNMENT ( #15, #70, ( #149 ) ) ;
#209 = AXIS2_PLACEMENT_3D ( 'NONE', #229, #148, #180 ) ;
#210 = SHAPE_DEFINITION_REPRESENTATION ( #25, #90 ) ;
#211 = ORIENTED_EDGE ( 'NONE', *, *, #6, .T. ) ;
#212 = ADVANCED_FACE ( 'NONE', ( #195 ), #125, .F. ) ;
#213 = FACE_BOUND ( 'NONE', #192, .T. ) ;
#214 = DIRECTION ( 'NONE',  ( -3.491481338843133355E-15, 1.219242935835426903E-16, -1.000000000000000000 ) ) ;
#215 = FACE_OUTER_BOUND ( 'NONE', #54, .T. ) ;
#216 = DIRECTION ( 'NONE',  ( 3.491481338843133355E-15, -1.219242935835426903E-16, 1.000000000000000000 ) ) ;
#217 = DESIGN_CONTEXT ( 'detailed design', #116, 'design' ) ;
#218 = COORDINATED_UNIVERSAL_TIME_OFFSET ( 1, 0, .AHEAD. ) ;
#219 = AXIS2_PLACEMENT_3D ( 'NONE', #162, #214, #232 ) ;
#220 = VERTEX_POINT ( 'NONE', #169 ) ;
#221 = CC_DESIGN_APPROVAL ( #184, ( #207 ) ) ;
#222 = PERSON ( 'UNSPECIFIED', 'UNSPECIFIED', 'UNSPECIFIED', ('UNSPECIFIED'), ('UNSPECIFIED'), ('UNSPECIFIED') ) ;
#223 = PERSON_AND_ORGANIZATION ( #222, #3 ) ;
#224 = DATE_TIME_ROLE ( 'classification_date' ) ;
#225 = ORIENTED_EDGE ( 'NONE', *, *, #49, .F. ) ;
#226 = ADVANCED_FACE ( 'NONE', ( #194 ), #27, .F. ) ;
#227 = CIRCLE ( 'NONE', #19, 1.499999999999996003 ) ;
#228 = COORDINATED_UNIVERSAL_TIME_OFFSET ( 1, 0, .AHEAD. ) ;
#229 = CARTESIAN_POINT ( 'NONE',  ( 3.382272771447652460E-14, -1.181106751961745976E-15, 9.687214231448058044 ) ) ;
#230 = FACE_OUTER_BOUND ( 'NONE', #206, .T. ) ;
#231 = CC_DESIGN_DATE_AND_TIME_ASSIGNMENT ( #152, #89, ( #149 ) ) ;
#232 = DIRECTION ( 'NONE',  ( 0.0000000000000000000, -1.000000000000000000, 0.0000000000000000000 ) ) ;
#233 = DIRECTION ( 'NONE',  ( 0.0000000000000000000, 1.000000000000000000, 0.0000000000000000000 ) ) ;
#234 = DIRECTION ( 'NONE',  ( -3.491481338843133355E-15, 1.224646799147353207E-16, -1.000000000000000000 ) ) ;
#235 = VERTEX_POINT ( 'NONE', #150 ) ;
#236 = ADVANCED_FACE ( 'NONE', ( #60 ), #102, .F. ) ;
#237 = AXIS2_PLACEMENT_3D ( 'NONE', #119, #61, #146 ) ;
#238 = APPROVAL_DATE_TIME ( #13, #137 ) ;
#239 = CARTESIAN_POINT ( 'NONE',  ( -3.077273592303789342E-30, -0.3500000000000000333, -8.813661863429613987E-16 ) ) ;
#240 = ADVANCED_FACE ( 'NONE', ( #230, #154 ), #181, .T. ) ;
#241 = DIRECTION ( 'NONE',  ( 1.000000000000000000, 0.0000000000000000000, 0.0000000000000000000 ) ) ;
#242 = ORIENTED_EDGE ( 'NONE', *, *, #6, .F. ) ;
#243 = LOCAL_TIME ( 10, 16, 2.000000000000000000, #91 ) ;
ENDSEC;
END-ISO-10303-21;
