ISO-10303-21;
HEADER;
FILE_DESCRIPTION (( 'STEP AP203' ),
    '1' );
FILE_NAME ('35242.step',
    '2021-11-01T09:16:01',
    ( '' ),
    ( '' ),
    'SwSTEP 2.0',
    'SolidWorks 2019',
    '' );
FILE_SCHEMA (( 'CONFIG_CONTROL_DESIGN' ));
ENDSEC;

DATA;
#1 = VERTEX_POINT ( 'NONE', #72 ) ;
#2 = CC_DESIGN_DATE_AND_TIME_ASSIGNMENT ( #56, #81, ( #3 ) ) ;
#3 = SECURITY_CLASSIFICATION ( '', '', #99 ) ;
#4 = ORIENTED_EDGE ( 'NONE', *, *, #80, .T. ) ;
#5 = PERSON_AND_ORGANIZATION ( #102, #150 ) ;
#6 = ORIENTED_EDGE ( 'NONE', *, *, #38, .T. ) ;
#7 = UNCERTAINTY_MEASURE_WITH_UNIT (LENGTH_MEASURE( 1.000000000000000082E-05 ), #128, 'distance_accuracy_value', 'NONE');
#8 = FACE_OUTER_BOUND ( 'NONE', #227, .T. ) ;
#9 = DIRECTION ( 'NONE',  ( 0.0000000000000000000, -1.000000000000000000, 0.0000000000000000000 ) ) ;
#10 = FACE_OUTER_BOUND ( 'NONE', #24, .T. ) ;
#11 = ADVANCED_BREP_SHAPE_REPRESENTATION ( '35242', ( #131, #51, #23 ), #126 ) ;
#12 = TOROIDAL_SURFACE ( 'NONE', #139, 2.299999999999999822, 2.000000000000000000 ) ;
#13 = DIRECTION ( 'NONE',  ( 3.491481338843133355E-15, -1.219242935835426903E-16, 1.000000000000000000 ) ) ;
#14 = CARTESIAN_POINT ( 'NONE',  ( 0.0000000000000000000, 0.0000000000000000000, 0.0000000000000000000 ) ) ;
#15 = DIRECTION ( 'NONE',  ( -4.275831445896958607E-31, -1.000000000000000000, -1.224646799147353207E-16 ) ) ;
#16 = AXIS2_PLACEMENT_3D ( 'NONE', #68, #34, #109 ) ;
#17 = CARTESIAN_POINT ( 'NONE',  ( 0.0000000000000000000, 0.0000000000000000000, 0.0000000000000000000 ) ) ;
#18 = MECHANICAL_CONTEXT ( 'NONE', #164, 'mechanical' ) ;
#19 = ADVANCED_FACE ( 'NONE', ( #8, #84 ), #32, .T. ) ;
#20 = DATE_AND_TIME ( #184, #145 ) ;
#21 = CALENDAR_DATE ( 2021, 1, 11 ) ;
#22 = APPROVAL ( #94, 'UNSPECIFIED' ) ;
#23 = AXIS2_PLACEMENT_3D ( 'NONE', #17, #217, #204 ) ;
#24 = EDGE_LOOP ( 'NONE', ( #27 ) ) ;
#25 = LOCAL_TIME ( 10, 16, 1.000000000000000000, #226 ) ;
#26 = DATE_AND_TIME ( #137, #188 ) ;
#27 = ORIENTED_EDGE ( 'NONE', *, *, #80, .F. ) ;
#28 = ADVANCED_FACE ( 'NONE', ( #214, #49 ), #178, .T. ) ;
#29 = AXIS2_PLACEMENT_3D ( 'NONE', #122, #216, #9 ) ;
#30 = ORIENTED_EDGE ( 'NONE', *, *, #129, .F. ) ;
#31 = FACE_OUTER_BOUND ( 'NONE', #187, .T. ) ;
#32 = CYLINDRICAL_SURFACE ( 'NONE', #63, 1.499999999999993783 ) ;
#33 = DIRECTION ( 'NONE',  ( 0.0000000000000000000, -1.000000000000000000, 0.0000000000000000000 ) ) ;
#34 = DIRECTION ( 'NONE',  ( 3.491481338843133355E-15, -1.219242935835426903E-16, 1.000000000000000000 ) ) ;
#35 = CARTESIAN_POINT ( 'NONE',  ( 1.316288464743861212E-13, -4.616918432785521081E-15, 37.69999999999999574 ) ) ;
#36 = CARTESIAN_POINT ( 'NONE',  ( 5.997101338837014041E-15, -0.3681483474218603669, 1.717638090205027890 ) ) ;
#37 = AXIS2_PLACEMENT_3D ( 'NONE', #106, #64, #240 ) ;
#38 = EDGE_CURVE ( 'NONE', #1, #1, #77, .T. ) ;
#39 =( NAMED_UNIT ( * ) SI_UNIT ( $, .STERADIAN. ) SOLID_ANGLE_UNIT ( ) );
#40 = COORDINATED_UNIVERSAL_TIME_OFFSET ( 1, 0, .AHEAD. ) ;
#41 = APPROVAL_ROLE ( '' ) ;
#42 = CC_DESIGN_PERSON_AND_ORGANIZATION_ASSIGNMENT ( #5, #190, ( #52 ) ) ;
#43 = EDGE_LOOP ( 'NONE', ( #191 ) ) ;
#44 = EDGE_LOOP ( 'NONE', ( #60 ) ) ;
#45 = CIRCLE ( 'NONE', #67, 0.3000000000000000999 ) ;
#46 = CARTESIAN_POINT ( 'NONE',  ( 4.189777606611756871E-15, 0.0000000000000000000, 1.199999999999999067 ) ) ;
#47 = FACE_OUTER_BOUND ( 'NONE', #207, .T. ) ;
#48 = DIRECTION ( 'NONE',  ( -3.491481338843133355E-15, 1.219242935835426903E-16, -1.000000000000000000 ) ) ;
#49 = FACE_OUTER_BOUND ( 'NONE', #59, .T. ) ;
#50 = PERSON_AND_ORGANIZATION_ROLE ( 'design_owner' ) ;
#51 = MANIFOLD_SOLID_BREP ( 'Corps-Déplacer/Copier1[2]', #149 ) ;
#52 = PRODUCT_DEFINITION_FORMATION_WITH_SPECIFIED_SOURCE ( 'ANY', '', #95, .NOT_KNOWN. ) ;
#53 = PERSON_AND_ORGANIZATION_ROLE ( 'creator' ) ;
#54 = PERSON_AND_ORGANIZATION ( #102, #150 ) ;
#55 = CARTESIAN_POINT ( 'NONE',  ( 1.326762908760390423E-13, 8.998558695971044381E-33, 38.00000000000000000 ) ) ;
#56 = DATE_AND_TIME ( #186, #25 ) ;
#57 = ORIENTED_EDGE ( 'NONE', *, *, #171, .T. ) ;
#58 = EDGE_CURVE ( 'NONE', #200, #200, #104, .T. ) ;
#59 = EDGE_LOOP ( 'NONE', ( #230 ) ) ;
#60 = ORIENTED_EDGE ( 'NONE', *, *, #38, .F. ) ;
#61 = FACE_OUTER_BOUND ( 'NONE', #76, .T. ) ;
#62 = AXIS2_PLACEMENT_3D ( 'NONE', #161, #156, #15 ) ;
#63 = AXIS2_PLACEMENT_3D ( 'NONE', #238, #233, #120 ) ;
#64 = DIRECTION ( 'NONE',  ( 3.491481338843133355E-15, -1.224646799147353207E-16, 1.000000000000000000 ) ) ;
#65 = DIRECTION ( 'NONE',  ( 0.0000000000000000000, 1.000000000000000000, 0.0000000000000000000 ) ) ;
#66 = FACE_OUTER_BOUND ( 'NONE', #138, .T. ) ;
#67 = AXIS2_PLACEMENT_3D ( 'NONE', #197, #143, #179 ) ;
#68 = CARTESIAN_POINT ( 'NONE',  ( 4.189777606611756871E-15, -1.463091523002511100E-16, 1.199999999999999067 ) ) ;
#69 = PERSON_AND_ORGANIZATION ( #102, #150 ) ;
#70 = CARTESIAN_POINT ( 'NONE',  ( 4.189777606611756871E-15, -0.3000000000000002665, 1.199999999999999067 ) ) ;
#71 = DATE_AND_TIME ( #165, #182 ) ;
#72 = CARTESIAN_POINT ( 'NONE',  ( 1.326762908760390423E-13, 1.199999999999991074, 38.00000000000000000 ) ) ;
#73 = CC_DESIGN_PERSON_AND_ORGANIZATION_ASSIGNMENT ( #224, #229, ( #52 ) ) ;
#74 = DIRECTION ( 'NONE',  ( -3.491481338843133355E-15, 1.224646799147353207E-16, -1.000000000000000000 ) ) ;
#75 = AXIS2_PLACEMENT_3D ( 'NONE', #211, #86, #119 ) ;
#76 = EDGE_LOOP ( 'NONE', ( #4 ) ) ;
#77 = CIRCLE ( 'NONE', #219, 1.199999999999995515 ) ;
#78 = PERSON_AND_ORGANIZATION ( #102, #150 ) ;
#79 = PRODUCT_DEFINITION_SHAPE ( 'NONE', 'NONE',  #237 ) ;
#80 = EDGE_CURVE ( 'NONE', #130, #130, #45, .T. ) ;
#81 = DATE_TIME_ROLE ( 'classification_date' ) ;
#82 = EDGE_LOOP ( 'NONE', ( #57 ) ) ;
#83 = ADVANCED_FACE ( 'NONE', ( #159 ), #121, .T. ) ;
#84 = FACE_OUTER_BOUND ( 'NONE', #43, .T. ) ;
#85 = DIRECTION ( 'NONE',  ( 3.491481338843133355E-15, -1.224646799147353207E-16, 1.000000000000000000 ) ) ;
#86 = DIRECTION ( 'NONE',  ( 3.491481338843133355E-15, -1.219242935835426903E-16, 1.000000000000000000 ) ) ;
#87 = CC_DESIGN_APPROVAL ( #189, ( #3 ) ) ;
#88 = DIRECTION ( 'NONE',  ( -4.275831445896958607E-31, -1.000000000000000000, -1.224646799147353207E-16 ) ) ;
#89 = DIRECTION ( 'NONE',  ( -3.491481338843133355E-15, 1.224646799147353207E-16, -1.000000000000000000 ) ) ;
#90 = FACE_OUTER_BOUND ( 'NONE', #44, .T. ) ;
#91 = ADVANCED_FACE ( 'NONE', ( #10 ), #107, .F. ) ;
#92 = VERTEX_POINT ( 'NONE', #111 ) ;
#93 = APPLICATION_PROTOCOL_DEFINITION ( 'international standard', 'config_control_design', 1994, #166 ) ;
#94 = APPROVAL_STATUS ( 'not_yet_approved' ) ;
#95 = PRODUCT ( '35242', '35242', '', ( #18 ) ) ;
#96 = DATE_TIME_ROLE ( 'creation_date' ) ;
#97 = EDGE_CURVE ( 'NONE', #147, #147, #155, .T. ) ;
#98 = DATE_AND_TIME ( #21, #235 ) ;
#99 = SECURITY_CLASSIFICATION_LEVEL ( 'unclassified' ) ;
#100 = CIRCLE ( 'NONE', #16, 0.3000000000000000999 ) ;
#101 = APPROVAL_PERSON_ORGANIZATION ( #167, #225, #41 ) ;
#102 = PERSON ( 'UNSPECIFIED', 'UNSPECIFIED', 'UNSPECIFIED', ('UNSPECIFIED'), ('UNSPECIFIED'), ('UNSPECIFIED') ) ;
#103 = APPROVAL_DATE_TIME ( #26, #189 ) ;
#104 = CIRCLE ( 'NONE', #29, 0.3681483474218601448 ) ;
#105 = ORIENTED_EDGE ( 'NONE', *, *, #97, .F. ) ;
#106 = CARTESIAN_POINT ( 'NONE',  ( 4.189777606611758449E-15, -1.734723475976811532E-16, 1.199999999999999734 ) ) ;
#107 = PLANE ( 'NONE',  #181 ) ;
#108 = CARTESIAN_POINT ( 'NONE',  ( 1.326762908760390423E-13, -4.653657836759941941E-15, 38.00000000000000000 ) ) ;
#109 = DIRECTION ( 'NONE',  ( 0.0000000000000000000, -1.000000000000000000, 0.0000000000000000000 ) ) ;
#110 = APPROVAL_PERSON_ORGANIZATION ( #201, #22, #148 ) ;
#111 = CARTESIAN_POINT ( 'NONE',  ( -3.034703952723931789E-30, -0.2999999999999999334, -8.691737569846070902E-16 ) ) ;
#112 = DIRECTION ( 'NONE',  ( 4.275831445896958607E-31, 1.000000000000000000, 1.224646799147353207E-16 ) ) ;
#113 = ADVANCED_FACE ( 'NONE', ( #61, #154 ), #12, .F. ) ;
#114 = COORDINATED_UNIVERSAL_TIME_OFFSET ( 1, 0, .AHEAD. ) ;
#115 = CC_DESIGN_DATE_AND_TIME_ASSIGNMENT ( #20, #96, ( #237 ) ) ;
#116 = ORIENTED_EDGE ( 'NONE', *, *, #129, .T. ) ;
#117 = EDGE_LOOP ( 'NONE', ( #205 ) ) ;
#118 = CC_DESIGN_PERSON_AND_ORGANIZATION_ASSIGNMENT ( #69, #50, ( #95 ) ) ;
#119 = DIRECTION ( 'NONE',  ( -4.256963957985706261E-31, -1.000000000000000000, -1.219242935835426903E-16 ) ) ;
#120 = DIRECTION ( 'NONE',  ( 4.275831445896958607E-31, 1.000000000000000000, 1.224646799147353207E-16 ) ) ;
#121 = PLANE ( 'NONE',  #37 ) ;
#122 = CARTESIAN_POINT ( 'NONE',  ( 5.997101338837014041E-15, -2.094218107804334090E-16, 1.717638090205027890 ) ) ;
#123 = CC_DESIGN_PERSON_AND_ORGANIZATION_ASSIGNMENT ( #78, #170, ( #3 ) ) ;
#124 = CARTESIAN_POINT ( 'NONE',  ( 1.326762908760390423E-13, -4.653657836759941941E-15, 38.00000000000000000 ) ) ;
#125 = COORDINATED_UNIVERSAL_TIME_OFFSET ( 1, 0, .AHEAD. ) ;
#126 =( GEOMETRIC_REPRESENTATION_CONTEXT ( 3 ) GLOBAL_UNCERTAINTY_ASSIGNED_CONTEXT ( ( #7 ) ) GLOBAL_UNIT_ASSIGNED_CONTEXT ( ( #128, #222, #39 ) ) REPRESENTATION_CONTEXT ( 'NONE', 'WORKASPACE' ) );
#127 = CC_DESIGN_APPROVAL ( #225, ( #52 ) ) ;
#128 =( LENGTH_UNIT ( ) NAMED_UNIT ( * ) SI_UNIT ( .MILLI., .METRE. ) );
#129 = EDGE_CURVE ( 'NONE', #92, #92, #210, .T. ) ;
#130 = VERTEX_POINT ( 'NONE', #144 ) ;
#131 = MANIFOLD_SOLID_BREP ( 'Corps-Déplacer/Copier1[1]', #223 ) ;
#132 = CONICAL_SURFACE ( 'NONE', #209, 1.199999999999995515, 0.7853981633974461696 ) ;
#133 = ADVANCED_FACE ( 'NONE', ( #140, #66 ), #203, .T. ) ;
#134 = PERSON_AND_ORGANIZATION ( #102, #150 ) ;
#135 = COORDINATED_UNIVERSAL_TIME_OFFSET ( 1, 0, .AHEAD. ) ;
#136 = EDGE_LOOP ( 'NONE', ( #174 ) ) ;
#137 = CALENDAR_DATE ( 2021, 1, 11 ) ;
#138 = EDGE_LOOP ( 'NONE', ( #232 ) ) ;
#139 = AXIS2_PLACEMENT_3D ( 'NONE', #46, #13, #158 ) ;
#140 = FACE_BOUND ( 'NONE', #117, .T. ) ;
#141 = FACE_BOUND ( 'NONE', #172, .T. ) ;
#142 = DIRECTION ( 'NONE',  ( 0.0000000000000000000, 1.000000000000000000, 0.0000000000000000000 ) ) ;
#143 = DIRECTION ( 'NONE',  ( 3.491481338843133355E-15, -1.219242935835426903E-16, 1.000000000000000000 ) ) ;
#144 = CARTESIAN_POINT ( 'NONE',  ( 4.189777606611756871E-15, -0.3000000000000002665, 1.199999999999999067 ) ) ;
#145 = LOCAL_TIME ( 10, 16, 1.000000000000000000, #40 ) ;
#146 = PRODUCT_RELATED_PRODUCT_CATEGORY ( 'detail', '', ( #95 ) ) ;
#147 = VERTEX_POINT ( 'NONE', #242 ) ;
#148 = APPROVAL_ROLE ( '' ) ;
#149 = CLOSED_SHELL ( 'NONE', ( #83, #28, #153 ) ) ;
#150 = ORGANIZATION ( 'UNSPECIFIED', 'UNSPECIFIED', '' ) ;
#151 = APPROVAL_DATE_TIME ( #98, #225 ) ;
#152 = EDGE_LOOP ( 'NONE', ( #116 ) ) ;
#153 = ADVANCED_FACE ( 'NONE', ( #31 ), #177, .F. ) ;
#154 = FACE_OUTER_BOUND ( 'NONE', #136, .T. ) ;
#155 = CIRCLE ( 'NONE', #220, 1.499999999999996003 ) ;
#156 = DIRECTION ( 'NONE',  ( 3.491481338843133355E-15, -1.224646799147353207E-16, 1.000000000000000000 ) ) ;
#157 = APPROVAL_PERSON_ORGANIZATION ( #134, #189, #173 ) ;
#158 = DIRECTION ( 'NONE',  ( -4.318720456597940409E-31, -1.000000000000000000, -1.219242935835426903E-16 ) ) ;
#159 = FACE_OUTER_BOUND ( 'NONE', #82, .T. ) ;
#160 = ADVANCED_FACE ( 'NONE', ( #47, #141 ), #132, .T. ) ;
#161 = CARTESIAN_POINT ( 'NONE',  ( -1.068955699180124799E-30, 3.749391872347842254E-32, -3.061610804811898009E-16 ) ) ;
#162 = CIRCLE ( 'NONE', #198, 1.499999999999993783 ) ;
#163 = PLANE ( 'NONE',  #192 ) ;
#164 = APPLICATION_CONTEXT ( 'configuration controlled 3d designs of mechanical parts and assemblies' ) ;
#165 = CALENDAR_DATE ( 2021, 1, 11 ) ;
#166 = APPLICATION_CONTEXT ( 'configuration controlled 3d designs of mechanical parts and assemblies' ) ;
#167 = PERSON_AND_ORGANIZATION ( #102, #150 ) ;
#168 = EDGE_CURVE ( 'NONE', #169, #169, #162, .T. ) ;
#169 = VERTEX_POINT ( 'NONE', #243 ) ;
#170 = PERSON_AND_ORGANIZATION_ROLE ( 'classification_officer' ) ;
#171 = EDGE_CURVE ( 'NONE', #183, #183, #100, .T. ) ;
#172 = EDGE_LOOP ( 'NONE', ( #6 ) ) ;
#173 = APPROVAL_ROLE ( '' ) ;
#174 = ORIENTED_EDGE ( 'NONE', *, *, #58, .F. ) ;
#175 = DESIGN_CONTEXT ( 'detailed design', #166, 'design' ) ;
#176 = DIRECTION ( 'NONE',  ( -3.491481338843133355E-15, 1.224646799147353207E-16, -1.000000000000000000 ) ) ;
#177 = PLANE ( 'NONE',  #62 ) ;
#178 = CYLINDRICAL_SURFACE ( 'NONE', #234, 0.3000000000000000444 ) ;
#179 = DIRECTION ( 'NONE',  ( 0.0000000000000000000, -1.000000000000000000, 0.0000000000000000000 ) ) ;
#180 = DIRECTION ( 'NONE',  ( -3.491481338843133355E-15, 1.224646799147353207E-16, -1.000000000000000000 ) ) ;
#181 = AXIS2_PLACEMENT_3D ( 'NONE', #195, #85, #88 ) ;
#182 = LOCAL_TIME ( 10, 16, 1.000000000000000000, #125 ) ;
#183 = VERTEX_POINT ( 'NONE', #70 ) ;
#184 = CALENDAR_DATE ( 2021, 1, 11 ) ;
#185 = SHAPE_DEFINITION_REPRESENTATION ( #79, #11 ) ;
#186 = CALENDAR_DATE ( 2021, 1, 11 ) ;
#187 = EDGE_LOOP ( 'NONE', ( #30 ) ) ;
#188 = LOCAL_TIME ( 10, 16, 1.000000000000000000, #135 ) ;
#189 = APPROVAL ( #208, 'UNSPECIFIED' ) ;
#190 = PERSON_AND_ORGANIZATION_ROLE ( 'creator' ) ;
#191 = ORIENTED_EDGE ( 'NONE', *, *, #168, .F. ) ;
#192 = AXIS2_PLACEMENT_3D ( 'NONE', #55, #74, #112 ) ;
#193 = DIRECTION ( 'NONE',  ( 3.491481338843133355E-15, -1.219242935835426903E-16, 1.000000000000000000 ) ) ;
#194 = DIRECTION ( 'NONE',  ( 0.0000000000000000000, 1.000000000000000000, 0.0000000000000000000 ) ) ;
#195 = CARTESIAN_POINT ( 'NONE',  ( 4.189777606611758449E-15, -1.734723475976811532E-16, 1.199999999999999734 ) ) ;
#196 = DIRECTION ( 'NONE',  ( 0.0000000000000000000, -1.000000000000000000, 0.0000000000000000000 ) ) ;
#197 = CARTESIAN_POINT ( 'NONE',  ( 4.189777606611756871E-15, -1.463091523002511100E-16, 1.199999999999999067 ) ) ;
#198 = AXIS2_PLACEMENT_3D ( 'NONE', #215, #48, #196 ) ;
#199 = CC_DESIGN_APPROVAL ( #22, ( #237 ) ) ;
#200 = VERTEX_POINT ( 'NONE', #36 ) ;
#201 = PERSON_AND_ORGANIZATION ( #102, #150 ) ;
#202 = APPROVAL_STATUS ( 'not_yet_approved' ) ;
#203 = CONICAL_SURFACE ( 'NONE', #241, 2.499999999999994671, 0.2617993877991429130 ) ;
#204 = DIRECTION ( 'NONE',  ( 1.000000000000000000, 0.0000000000000000000, 0.0000000000000000000 ) ) ;
#205 = ORIENTED_EDGE ( 'NONE', *, *, #58, .T. ) ;
#206 = ORIENTED_EDGE ( 'NONE', *, *, #97, .T. ) ;
#207 = EDGE_LOOP ( 'NONE', ( #105 ) ) ;
#208 = APPROVAL_STATUS ( 'not_yet_approved' ) ;
#209 = AXIS2_PLACEMENT_3D ( 'NONE', #108, #89, #142 ) ;
#210 = CIRCLE ( 'NONE', #75, 0.2999999999999999334 ) ;
#211 = CARTESIAN_POINT ( 'NONE',  ( -2.906995033984360881E-30, 1.015137363119482626E-31, -8.325964689095442634E-16 ) ) ;
#212 = CARTESIAN_POINT ( 'NONE',  ( 3.377595073421997432E-14, -1.179473276161574230E-15, 9.673816771826507122 ) ) ;
#213 = CC_DESIGN_PERSON_AND_ORGANIZATION_ASSIGNMENT ( #54, #53, ( #237 ) ) ;
#214 = FACE_OUTER_BOUND ( 'NONE', #152, .T. ) ;
#215 = CARTESIAN_POINT ( 'NONE',  ( 2.074556498397843706E-14, -7.244456178308364980E-16, 5.941765964257529120 ) ) ;
#216 = DIRECTION ( 'NONE',  ( 3.491481338843133355E-15, -1.219242935835426903E-16, 1.000000000000000000 ) ) ;
#217 = DIRECTION ( 'NONE',  ( 0.0000000000000000000, 0.0000000000000000000, 1.000000000000000000 ) ) ;
#218 = APPLICATION_PROTOCOL_DEFINITION ( 'international standard', 'config_control_design', 1994, #164 ) ;
#219 = AXIS2_PLACEMENT_3D ( 'NONE', #124, #176, #194 ) ;
#220 = AXIS2_PLACEMENT_3D ( 'NONE', #35, #180, #65 ) ;
#221 = APPROVAL_DATE_TIME ( #71, #22 ) ;
#222 =( NAMED_UNIT ( * ) PLANE_ANGLE_UNIT ( ) SI_UNIT ( $, .RADIAN. ) );
#223 = CLOSED_SHELL ( 'NONE', ( #19, #160, #231, #133, #113, #91 ) ) ;
#224 = PERSON_AND_ORGANIZATION ( #102, #150 ) ;
#225 = APPROVAL ( #202, 'UNSPECIFIED' ) ;
#226 = COORDINATED_UNIVERSAL_TIME_OFFSET ( 1, 0, .AHEAD. ) ;
#227 = EDGE_LOOP ( 'NONE', ( #206 ) ) ;
#228 = CC_DESIGN_SECURITY_CLASSIFICATION ( #3, ( #52 ) ) ;
#229 = PERSON_AND_ORGANIZATION_ROLE ( 'design_supplier' ) ;
#230 = ORIENTED_EDGE ( 'NONE', *, *, #171, .F. ) ;
#231 = ADVANCED_FACE ( 'NONE', ( #90 ), #163, .F. ) ;
#232 = ORIENTED_EDGE ( 'NONE', *, *, #168, .T. ) ;
#233 = DIRECTION ( 'NONE',  ( -3.491481338843133355E-15, 1.224646799147353207E-16, -1.000000000000000000 ) ) ;
#234 = AXIS2_PLACEMENT_3D ( 'NONE', #14, #236, #239 ) ;
#235 = LOCAL_TIME ( 10, 16, 1.000000000000000000, #114 ) ;
#236 = DIRECTION ( 'NONE',  ( 3.491481338843133355E-15, -1.219242935835426903E-16, 1.000000000000000000 ) ) ;
#237 = PRODUCT_DEFINITION ( 'UNKNOWN', '', #52, #175 ) ;
#238 = CARTESIAN_POINT ( 'NONE',  ( 0.0000000000000000000, 0.0000000000000000000, 0.0000000000000000000 ) ) ;
#239 = DIRECTION ( 'NONE',  ( -4.256963957985708889E-31, -1.000000000000000000, -1.219242935835426656E-16 ) ) ;
#240 = DIRECTION ( 'NONE',  ( -4.275831445896958607E-31, -1.000000000000000000, -1.224646799147353207E-16 ) ) ;
#241 = AXIS2_PLACEMENT_3D ( 'NONE', #212, #193, #33 ) ;
#242 = CARTESIAN_POINT ( 'NONE',  ( 1.316288464743861212E-13, 1.499999999999991340, 37.69999999999999574 ) ) ;
#243 = CARTESIAN_POINT ( 'NONE',  ( 2.074556498397843706E-14, -1.499999999999994449, 5.941765964257529120 ) ) ;
ENDSEC;
END-ISO-10303-21;
