ISO-10303-21;
HEADER;
FILE_DESCRIPTION (( 'STEP AP203' ),
    '1' );
FILE_NAME ('35241.step',
    '2021-11-01T09:16:01',
    ( '' ),
    ( '' ),
    'SwSTEP 2.0',
    'SolidWorks 2019',
    '' );
FILE_SCHEMA (( 'CONFIG_CONTROL_DESIGN' ));
ENDSEC;

DATA;
#1 = DATE_TIME_ROLE ( 'creation_date' ) ;
#2 = CARTESIAN_POINT ( 'NONE',  ( 5.298805071068388947E-15, -0.3181483474218605445, 1.517638090205028378 ) ) ;
#3 = ADVANCED_FACE ( 'NONE', ( #24, #61 ), #77, .T. ) ;
#4 = APPROVAL_DATE_TIME ( #84, #75 ) ;
#5 =( GEOMETRIC_REPRESENTATION_CONTEXT ( 3 ) GLOBAL_UNCERTAINTY_ASSIGNED_CONTEXT ( ( #213 ) ) GLOBAL_UNIT_ASSIGNED_CONTEXT ( ( #115, #76, #118 ) ) REPRESENTATION_CONTEXT ( 'NONE', 'WORKASPACE' ) );
#6 = EDGE_LOOP ( 'NONE', ( #193 ) ) ;
#7 = APPROVAL_PERSON_ORGANIZATION ( #206, #108, #37 ) ;
#8 = PERSON_AND_ORGANIZATION ( #124, #123 ) ;
#9 = DIRECTION ( 'NONE',  ( 0.0000000000000000000, -1.000000000000000000, 0.0000000000000000000 ) ) ;
#10 = CLOSED_SHELL ( 'NONE', ( #218, #55, #103 ) ) ;
#11 = CC_DESIGN_APPROVAL ( #108, ( #87 ) ) ;
#12 = DIRECTION ( 'NONE',  ( -4.256963957985712392E-31, -1.000000000000000000, -1.219242935835425424E-16 ) ) ;
#13 = FACE_OUTER_BOUND ( 'NONE', #25, .T. ) ;
#14 = DIRECTION ( 'NONE',  ( 3.491481338843133355E-15, -1.219242935835426903E-16, 1.000000000000000000 ) ) ;
#15 = FACE_OUTER_BOUND ( 'NONE', #125, .T. ) ;
#16 = DIRECTION ( 'NONE',  ( 1.000000000000000000, 0.0000000000000000000, 0.0000000000000000000 ) ) ;
#17 = EDGE_CURVE ( 'NONE', #116, #116, #110, .T. ) ;
#18 = CARTESIAN_POINT ( 'NONE',  ( -2.992134313144075287E-30, -0.2500000000000000000, -8.569813276262527817E-16 ) ) ;
#19 = DATE_AND_TIME ( #135, #243 ) ;
#20 = CONICAL_SURFACE ( 'NONE', #70, 2.499999999999994671, 0.2617993877991430796 ) ;
#21 = DIRECTION ( 'NONE',  ( 3.491481338843133355E-15, -1.219242935835426903E-16, 1.000000000000000000 ) ) ;
#22 = ADVANCED_FACE ( 'NONE', ( #240, #95 ), #165, .T. ) ;
#23 = PERSON_AND_ORGANIZATION_ROLE ( 'creator' ) ;
#24 = FACE_OUTER_BOUND ( 'NONE', #172, .T. ) ;
#25 = EDGE_LOOP ( 'NONE', ( #208 ) ) ;
#26 = SECURITY_CLASSIFICATION_LEVEL ( 'unclassified' ) ;
#27 = EDGE_LOOP ( 'NONE', ( #175 ) ) ;
#28 = EDGE_LOOP ( 'NONE', ( #232 ) ) ;
#29 = CARTESIAN_POINT ( 'NONE',  ( 1.316288464743861212E-13, -4.616918432785521081E-15, 37.69999999999999574 ) ) ;
#30 = DIRECTION ( 'NONE',  ( -3.491481338843133355E-15, 1.224646799147353207E-16, -1.000000000000000000 ) ) ;
#31 = DIRECTION ( 'NONE',  ( 3.491481338843133355E-15, -1.219242935835426903E-16, 1.000000000000000000 ) ) ;
#32 = CARTESIAN_POINT ( 'NONE',  ( 0.0000000000000000000, 0.0000000000000000000, 0.0000000000000000000 ) ) ;
#33 = CARTESIAN_POINT ( 'NONE',  ( 3.491481338843133355E-15, -1.445602896647343354E-16, 1.000000000000000000 ) ) ;
#34 = APPROVAL_PERSON_ORGANIZATION ( #54, #101, #38 ) ;
#35 = VERTEX_POINT ( 'NONE', #137 ) ;
#36 = PRODUCT ( '35241', '35241', '', ( #226 ) ) ;
#37 = APPROVAL_ROLE ( '' ) ;
#38 = APPROVAL_ROLE ( '' ) ;
#39 = CC_DESIGN_PERSON_AND_ORGANIZATION_ASSIGNMENT ( #100, #23, ( #87 ) ) ;
#40 = CALENDAR_DATE ( 2021, 1, 11 ) ;
#41 = CALENDAR_DATE ( 2021, 1, 11 ) ;
#42 = EDGE_LOOP ( 'NONE', ( #85 ) ) ;
#43 = ORIENTED_EDGE ( 'NONE', *, *, #211, .F. ) ;
#44 = LOCAL_TIME ( 10, 16, 1.000000000000000000, #152 ) ;
#45 = CC_DESIGN_PERSON_AND_ORGANIZATION_ASSIGNMENT ( #173, #158, ( #164 ) ) ;
#46 = MANIFOLD_SOLID_BREP ( 'Corps-Déplacer/Copier1[1]', #155 ) ;
#47 = SECURITY_CLASSIFICATION ( '', '', #26 ) ;
#48 = CARTESIAN_POINT ( 'NONE',  ( 1.326762908760390423E-13, 8.998558695971044381E-33, 38.00000000000000000 ) ) ;
#49 = FACE_OUTER_BOUND ( 'NONE', #42, .T. ) ;
#50 = FACE_OUTER_BOUND ( 'NONE', #64, .T. ) ;
#51 = CC_DESIGN_DATE_AND_TIME_ASSIGNMENT ( #105, #212, ( #47 ) ) ;
#52 = DIRECTION ( 'NONE',  ( -4.275831445896958607E-31, -1.000000000000000000, -1.224646799147353207E-16 ) ) ;
#53 = DIRECTION ( 'NONE',  ( -3.491481338843133355E-15, 1.219242935835426903E-16, -1.000000000000000000 ) ) ;
#54 = PERSON_AND_ORGANIZATION ( #124, #123 ) ;
#55 = ADVANCED_FACE ( 'NONE', ( #162, #50 ), #143, .T. ) ;
#56 = AXIS2_PLACEMENT_3D ( 'NONE', #32, #112, #74 ) ;
#57 = APPROVAL_DATE_TIME ( #149, #108 ) ;
#58 = APPROVAL_STATUS ( 'not_yet_approved' ) ;
#59 = CARTESIAN_POINT ( 'NONE',  ( 0.0000000000000000000, 0.0000000000000000000, 0.0000000000000000000 ) ) ;
#60 = COORDINATED_UNIVERSAL_TIME_OFFSET ( 1, 0, .AHEAD. ) ;
#61 = FACE_BOUND ( 'NONE', #88, .T. ) ;
#62 = ADVANCED_FACE ( 'NONE', ( #163, #49 ), #20, .T. ) ;
#63 = LOCAL_TIME ( 10, 16, 1.000000000000000000, #60 ) ;
#64 = EDGE_LOOP ( 'NONE', ( #83 ) ) ;
#65 = EDGE_CURVE ( 'NONE', #203, #203, #99, .T. ) ;
#66 = SHAPE_DEFINITION_REPRESENTATION ( #202, #96 ) ;
#67 = APPLICATION_CONTEXT ( 'configuration controlled 3d designs of mechanical parts and assemblies' ) ;
#68 = ORIENTED_EDGE ( 'NONE', *, *, #81, .T. ) ;
#69 = EDGE_LOOP ( 'NONE', ( #214 ) ) ;
#70 = AXIS2_PLACEMENT_3D ( 'NONE', #178, #109, #181 ) ;
#71 = PLANE ( 'NONE',  #201 ) ;
#72 = CARTESIAN_POINT ( 'NONE',  ( 3.491481338843130989E-15, -1.219242935835426163E-16, 0.9999999999999993339 ) ) ;
#73 = CARTESIAN_POINT ( 'NONE',  ( 0.0000000000000000000, 0.0000000000000000000, 0.0000000000000000000 ) ) ;
#74 = DIRECTION ( 'NONE',  ( -4.256963957985708889E-31, -1.000000000000000000, -1.219242935835426903E-16 ) ) ;
#75 = APPROVAL ( #207, 'UNSPECIFIED' ) ;
#76 =( NAMED_UNIT ( * ) PLANE_ANGLE_UNIT ( ) SI_UNIT ( $, .RADIAN. ) );
#77 = CONICAL_SURFACE ( 'NONE', #209, 1.199999999999995515, 0.7853981633974461696 ) ;
#78 = CC_DESIGN_APPROVAL ( #101, ( #164 ) ) ;
#79 = CARTESIAN_POINT ( 'NONE',  ( 2.069878800372188362E-14, -1.499999999999994449, 5.928368504635977310 ) ) ;
#80 = CARTESIAN_POINT ( 'NONE',  ( 3.491481338843130989E-15, -0.2500000000000004441, 0.9999999999999993339 ) ) ;
#81 = EDGE_CURVE ( 'NONE', #121, #121, #186, .T. ) ;
#82 = PERSON_AND_ORGANIZATION ( #124, #123 ) ;
#83 = ORIENTED_EDGE ( 'NONE', *, *, #65, .F. ) ;
#84 = DATE_AND_TIME ( #41, #63 ) ;
#85 = ORIENTED_EDGE ( 'NONE', *, *, #130, .T. ) ;
#86 = AXIS2_PLACEMENT_3D ( 'NONE', #89, #194, #180 ) ;
#87 = PRODUCT_DEFINITION ( 'UNKNOWN', '', #164, #174 ) ;
#88 = EDGE_LOOP ( 'NONE', ( #159 ) ) ;
#89 = CARTESIAN_POINT ( 'NONE',  ( 3.491481338843130989E-15, -1.219242935835426163E-16, 0.9999999999999993339 ) ) ;
#90 = CIRCLE ( 'NONE', #179, 1.499999999999993783 ) ;
#91 = DIRECTION ( 'NONE',  ( -3.491481338843133355E-15, 1.224646799147353207E-16, -1.000000000000000000 ) ) ;
#92 = DIRECTION ( 'NONE',  ( 0.0000000000000000000, -1.000000000000000000, 0.0000000000000000000 ) ) ;
#93 = LOCAL_TIME ( 10, 16, 1.000000000000000000, #102 ) ;
#94 = CC_DESIGN_PERSON_AND_ORGANIZATION_ASSIGNMENT ( #82, #140, ( #164 ) ) ;
#95 = FACE_OUTER_BOUND ( 'NONE', #69, .T. ) ;
#96 = ADVANCED_BREP_SHAPE_REPRESENTATION ( '35241', ( #46, #204, #235 ), #5 ) ;
#97 = CARTESIAN_POINT ( 'NONE',  ( 3.491481338843130989E-15, 0.0000000000000000000, 0.9999999999999993339 ) ) ;
#98 = VERTEX_POINT ( 'NONE', #2 ) ;
#99 = CIRCLE ( 'NONE', #192, 0.2500000000000003331 ) ;
#100 = PERSON_AND_ORGANIZATION ( #124, #123 ) ;
#101 = APPROVAL ( #58, 'UNSPECIFIED' ) ;
#102 = COORDINATED_UNIVERSAL_TIME_OFFSET ( 1, 0, .AHEAD. ) ;
#103 = ADVANCED_FACE ( 'NONE', ( #160 ), #236, .F. ) ;
#104 = AXIS2_PLACEMENT_3D ( 'NONE', #97, #21, #225 ) ;
#105 = DATE_AND_TIME ( #230, #44 ) ;
#106 = DATE_AND_TIME ( #187, #93 ) ;
#107 = DIRECTION ( 'NONE',  ( 3.491481338843133355E-15, -1.219242935835426903E-16, 1.000000000000000000 ) ) ;
#108 = APPROVAL ( #242, 'UNSPECIFIED' ) ;
#109 = DIRECTION ( 'NONE',  ( 3.491481338843133355E-15, -1.219242935835426903E-16, 1.000000000000000000 ) ) ;
#110 = CIRCLE ( 'NONE', #231, 0.2500000000000000000 ) ;
#111 = DIRECTION ( 'NONE',  ( 0.0000000000000000000, -1.000000000000000000, 0.0000000000000000000 ) ) ;
#112 = DIRECTION ( 'NONE',  ( 3.491481338843133355E-15, -1.219242935835426903E-16, 1.000000000000000000 ) ) ;
#113 = DIRECTION ( 'NONE',  ( 3.491481338843133355E-15, -1.224646799147353207E-16, 1.000000000000000000 ) ) ;
#114 = CC_DESIGN_SECURITY_CLASSIFICATION ( #47, ( #164 ) ) ;
#115 =( LENGTH_UNIT ( ) NAMED_UNIT ( * ) SI_UNIT ( .MILLI., .METRE. ) );
#116 = VERTEX_POINT ( 'NONE', #18 ) ;
#117 = EDGE_CURVE ( 'NONE', #200, #200, #184, .T. ) ;
#118 =( NAMED_UNIT ( * ) SI_UNIT ( $, .STERADIAN. ) SOLID_ANGLE_UNIT ( ) );
#119 = LOCAL_TIME ( 10, 16, 1.000000000000000000, #205 ) ;
#120 = PERSON_AND_ORGANIZATION_ROLE ( 'design_owner' ) ;
#121 = VERTEX_POINT ( 'NONE', #169 ) ;
#122 = EDGE_CURVE ( 'NONE', #35, #35, #189, .T. ) ;
#123 = ORGANIZATION ( 'UNSPECIFIED', 'UNSPECIFIED', '' ) ;
#124 = PERSON ( 'UNSPECIFIED', 'UNSPECIFIED', 'UNSPECIFIED', ('UNSPECIFIED'), ('UNSPECIFIED'), ('UNSPECIFIED') ) ;
#125 = EDGE_LOOP ( 'NONE', ( #68 ) ) ;
#126 = DIRECTION ( 'NONE',  ( 4.275831445896958607E-31, 1.000000000000000000, 1.224646799147353207E-16 ) ) ;
#127 = PRODUCT_RELATED_PRODUCT_CATEGORY ( 'detail', '', ( #36 ) ) ;
#128 = DIRECTION ( 'NONE',  ( 0.0000000000000000000, 1.000000000000000000, 0.0000000000000000000 ) ) ;
#129 = DIRECTION ( 'NONE',  ( 0.0000000000000000000, 1.000000000000000000, 0.0000000000000000000 ) ) ;
#130 = EDGE_CURVE ( 'NONE', #241, #241, #90, .T. ) ;
#131 = CARTESIAN_POINT ( 'NONE',  ( 5.298805071068388947E-15, -1.850369520637249153E-16, 1.517638090205028378 ) ) ;
#132 = DIRECTION ( 'NONE',  ( -3.491481338843133355E-15, 1.224646799147353207E-16, -1.000000000000000000 ) ) ;
#133 = FACE_OUTER_BOUND ( 'NONE', #170, .T. ) ;
#134 = APPROVAL_PERSON_ORGANIZATION ( #8, #75, #229 ) ;
#135 = CALENDAR_DATE ( 2021, 1, 11 ) ;
#136 = CC_DESIGN_PERSON_AND_ORGANIZATION_ASSIGNMENT ( #233, #153, ( #47 ) ) ;
#137 = CARTESIAN_POINT ( 'NONE',  ( 1.316288464743861212E-13, 1.499999999999991340, 37.69999999999999574 ) ) ;
#138 = PERSON_AND_ORGANIZATION ( #124, #123 ) ;
#139 = CC_DESIGN_DATE_AND_TIME_ASSIGNMENT ( #19, #1, ( #87 ) ) ;
#140 = PERSON_AND_ORGANIZATION_ROLE ( 'design_supplier' ) ;
#141 = ORIENTED_EDGE ( 'NONE', *, *, #81, .F. ) ;
#142 = TOROIDAL_SURFACE ( 'NONE', #104, 2.250000000000000444, 2.000000000000000000 ) ;
#143 = CYLINDRICAL_SURFACE ( 'NONE', #56, 0.2500000000000001665 ) ;
#144 = PLANE ( 'NONE',  #227 ) ;
#145 = DIRECTION ( 'NONE',  ( -4.275831445896958607E-31, -1.000000000000000000, -1.224646799147353207E-16 ) ) ;
#146 = DIRECTION ( 'NONE',  ( 0.0000000000000000000, 1.000000000000000000, 0.0000000000000000000 ) ) ;
#147 = AXIS2_PLACEMENT_3D ( 'NONE', #216, #219, #145 ) ;
#148 = CARTESIAN_POINT ( 'NONE',  ( 1.326762908760390423E-13, -4.653657836759941941E-15, 38.00000000000000000 ) ) ;
#149 = DATE_AND_TIME ( #40, #119 ) ;
#150 = AXIS2_PLACEMENT_3D ( 'NONE', #131, #14, #92 ) ;
#151 = APPLICATION_PROTOCOL_DEFINITION ( 'international standard', 'config_control_design', 1994, #176 ) ;
#152 = COORDINATED_UNIVERSAL_TIME_OFFSET ( 1, 0, .AHEAD. ) ;
#153 = PERSON_AND_ORGANIZATION_ROLE ( 'classification_officer' ) ;
#154 = EDGE_LOOP ( 'NONE', ( #141 ) ) ;
#155 = CLOSED_SHELL ( 'NONE', ( #22, #3, #166, #62, #223, #171 ) ) ;
#156 = CC_DESIGN_APPROVAL ( #75, ( #47 ) ) ;
#157 = EDGE_LOOP ( 'NONE', ( #177 ) ) ;
#158 = PERSON_AND_ORGANIZATION_ROLE ( 'creator' ) ;
#159 = ORIENTED_EDGE ( 'NONE', *, *, #117, .T. ) ;
#160 = FACE_OUTER_BOUND ( 'NONE', #6, .T. ) ;
#161 = DIRECTION ( 'NONE',  ( -3.491481338843133355E-15, 1.224646799147353207E-16, -1.000000000000000000 ) ) ;
#162 = FACE_OUTER_BOUND ( 'NONE', #28, .T. ) ;
#163 = FACE_BOUND ( 'NONE', #157, .T. ) ;
#164 = PRODUCT_DEFINITION_FORMATION_WITH_SPECIFIED_SOURCE ( 'ANY', '', #36, .NOT_KNOWN. ) ;
#165 = CYLINDRICAL_SURFACE ( 'NONE', #220, 1.499999999999993783 ) ;
#166 = ADVANCED_FACE ( 'NONE', ( #13 ), #71, .F. ) ;
#167 = DIRECTION ( 'NONE',  ( 0.0000000000000000000, 0.0000000000000000000, 1.000000000000000000 ) ) ;
#168 = APPLICATION_PROTOCOL_DEFINITION ( 'international standard', 'config_control_design', 1994, #67 ) ;
#169 = CARTESIAN_POINT ( 'NONE',  ( 3.491481338843130989E-15, -0.2500000000000004441, 0.9999999999999993339 ) ) ;
#170 = EDGE_LOOP ( 'NONE', ( #43 ) ) ;
#171 = ADVANCED_FACE ( 'NONE', ( #238 ), #144, .F. ) ;
#172 = EDGE_LOOP ( 'NONE', ( #191 ) ) ;
#173 = PERSON_AND_ORGANIZATION ( #124, #123 ) ;
#174 = DESIGN_CONTEXT ( 'detailed design', #176, 'design' ) ;
#175 = ORIENTED_EDGE ( 'NONE', *, *, #122, .T. ) ;
#176 = APPLICATION_CONTEXT ( 'configuration controlled 3d designs of mechanical parts and assemblies' ) ;
#177 = ORIENTED_EDGE ( 'NONE', *, *, #211, .T. ) ;
#178 = CARTESIAN_POINT ( 'NONE',  ( 3.372917375396341142E-14, -1.177839800361402091E-15, 9.660419312204952647 ) ) ;
#179 = AXIS2_PLACEMENT_3D ( 'NONE', #196, #53, #111 ) ;
#180 = DIRECTION ( 'NONE',  ( 0.0000000000000000000, -1.000000000000000000, 0.0000000000000000000 ) ) ;
#181 = DIRECTION ( 'NONE',  ( 0.0000000000000000000, -1.000000000000000000, 0.0000000000000000000 ) ) ;
#182 = DIRECTION ( 'NONE',  ( 4.275831445896958607E-31, 1.000000000000000000, 1.224646799147353207E-16 ) ) ;
#183 = DIRECTION ( 'NONE',  ( -4.275831445896958607E-31, -1.000000000000000000, -1.224646799147353207E-16 ) ) ;
#184 = CIRCLE ( 'NONE', #215, 1.199999999999995515 ) ;
#185 = COORDINATED_UNIVERSAL_TIME_OFFSET ( 1, 0, .AHEAD. ) ;
#186 = CIRCLE ( 'NONE', #86, 0.2500000000000003331 ) ;
#187 = CALENDAR_DATE ( 2021, 1, 11 ) ;
#188 = ORIENTED_EDGE ( 'NONE', *, *, #65, .T. ) ;
#189 = CIRCLE ( 'NONE', #221, 1.499999999999996003 ) ;
#190 = APPROVAL_DATE_TIME ( #106, #101 ) ;
#191 = ORIENTED_EDGE ( 'NONE', *, *, #122, .F. ) ;
#192 = AXIS2_PLACEMENT_3D ( 'NONE', #72, #107, #9 ) ;
#193 = ORIENTED_EDGE ( 'NONE', *, *, #17, .F. ) ;
#194 = DIRECTION ( 'NONE',  ( 3.491481338843133355E-15, -1.219242935835426903E-16, 1.000000000000000000 ) ) ;
#195 = CARTESIAN_POINT ( 'NONE',  ( 1.326762908760390423E-13, -4.653657836759941941E-15, 38.00000000000000000 ) ) ;
#196 = CARTESIAN_POINT ( 'NONE',  ( 2.069878800372188362E-14, -7.228121420306647529E-16, 5.928368504635977310 ) ) ;
#197 = CARTESIAN_POINT ( 'NONE',  ( -2.885710214194432455E-30, 1.007704596436559509E-31, -8.265002542303670599E-16 ) ) ;
#198 = PLANE ( 'NONE',  #210 ) ;
#199 = CC_DESIGN_PERSON_AND_ORGANIZATION_ASSIGNMENT ( #138, #120, ( #36 ) ) ;
#200 = VERTEX_POINT ( 'NONE', #228 ) ;
#201 = AXIS2_PLACEMENT_3D ( 'NONE', #48, #91, #126 ) ;
#202 = PRODUCT_DEFINITION_SHAPE ( 'NONE', 'NONE',  #87 ) ;
#203 = VERTEX_POINT ( 'NONE', #80 ) ;
#204 = MANIFOLD_SOLID_BREP ( 'Corps-Déplacer/Copier1[2]', #10 ) ;
#205 = COORDINATED_UNIVERSAL_TIME_OFFSET ( 1, 0, .AHEAD. ) ;
#206 = PERSON_AND_ORGANIZATION ( #124, #123 ) ;
#207 = APPROVAL_STATUS ( 'not_yet_approved' ) ;
#208 = ORIENTED_EDGE ( 'NONE', *, *, #117, .F. ) ;
#209 = AXIS2_PLACEMENT_3D ( 'NONE', #195, #237, #146 ) ;
#210 = AXIS2_PLACEMENT_3D ( 'NONE', #33, #113, #183 ) ;
#211 = EDGE_CURVE ( 'NONE', #98, #98, #239, .T. ) ;
#212 = DATE_TIME_ROLE ( 'classification_date' ) ;
#213 = UNCERTAINTY_MEASURE_WITH_UNIT (LENGTH_MEASURE( 1.000000000000000082E-05 ), #115, 'distance_accuracy_value', 'NONE');
#214 = ORIENTED_EDGE ( 'NONE', *, *, #130, .F. ) ;
#215 = AXIS2_PLACEMENT_3D ( 'NONE', #148, #30, #128 ) ;
#216 = CARTESIAN_POINT ( 'NONE',  ( -1.068955699180124799E-30, 3.749391872347842254E-32, -3.061610804811898009E-16 ) ) ;
#217 = CARTESIAN_POINT ( 'NONE',  ( 3.491481338843133355E-15, -1.445602896647343354E-16, 1.000000000000000000 ) ) ;
#218 = ADVANCED_FACE ( 'NONE', ( #224 ), #198, .T. ) ;
#219 = DIRECTION ( 'NONE',  ( 3.491481338843133355E-15, -1.224646799147353207E-16, 1.000000000000000000 ) ) ;
#220 = AXIS2_PLACEMENT_3D ( 'NONE', #73, #161, #182 ) ;
#221 = AXIS2_PLACEMENT_3D ( 'NONE', #29, #132, #129 ) ;
#222 = DIRECTION ( 'NONE',  ( 3.491481338843133355E-15, -1.224646799147353207E-16, 1.000000000000000000 ) ) ;
#223 = ADVANCED_FACE ( 'NONE', ( #15, #133 ), #142, .F. ) ;
#224 = FACE_OUTER_BOUND ( 'NONE', #234, .T. ) ;
#225 = DIRECTION ( 'NONE',  ( -4.319447003640437456E-31, -1.000000000000000000, -1.219242935835426903E-16 ) ) ;
#226 = MECHANICAL_CONTEXT ( 'NONE', #67, 'mechanical' ) ;
#227 = AXIS2_PLACEMENT_3D ( 'NONE', #217, #222, #52 ) ;
#228 = CARTESIAN_POINT ( 'NONE',  ( 1.326762908760390423E-13, 1.199999999999991074, 38.00000000000000000 ) ) ;
#229 = APPROVAL_ROLE ( '' ) ;
#230 = CALENDAR_DATE ( 2021, 1, 11 ) ;
#231 = AXIS2_PLACEMENT_3D ( 'NONE', #197, #31, #12 ) ;
#232 = ORIENTED_EDGE ( 'NONE', *, *, #17, .T. ) ;
#233 = PERSON_AND_ORGANIZATION ( #124, #123 ) ;
#234 = EDGE_LOOP ( 'NONE', ( #188 ) ) ;
#235 = AXIS2_PLACEMENT_3D ( 'NONE', #59, #167, #16 ) ;
#236 = PLANE ( 'NONE',  #147 ) ;
#237 = DIRECTION ( 'NONE',  ( -3.491481338843133355E-15, 1.224646799147353207E-16, -1.000000000000000000 ) ) ;
#238 = FACE_OUTER_BOUND ( 'NONE', #154, .T. ) ;
#239 = CIRCLE ( 'NONE', #150, 0.3181483474218604335 ) ;
#240 = FACE_OUTER_BOUND ( 'NONE', #27, .T. ) ;
#241 = VERTEX_POINT ( 'NONE', #79 ) ;
#242 = APPROVAL_STATUS ( 'not_yet_approved' ) ;
#243 = LOCAL_TIME ( 10, 16, 1.000000000000000000, #185 ) ;
ENDSEC;
END-ISO-10303-21;
