ISO-10303-21;
HEADER;
FILE_DESCRIPTION (( 'STEP AP203' ),
    '1' );
FILE_NAME ('35234.step',
    '2021-12-06T12:59:07',
    ( '' ),
    ( '' ),
    'SwSTEP 2.0',
    'SolidWorks 2019',
    '' );
FILE_SCHEMA (( 'CONFIG_CONTROL_DESIGN' ));
ENDSEC;

DATA;
#1 = CC_DESIGN_DATE_AND_TIME_ASSIGNMENT ( #56, #94, ( #91 ) ) ;
#2 = APPROVAL_DATE_TIME ( #145, #97 ) ;
#3 = MECHANICAL_CONTEXT ( 'NONE', #26, 'mechanical' ) ;
#4 = APPROVAL_ROLE ( '' ) ;
#5 = CALENDAR_DATE ( 2021, 6, 12 ) ;
#6 = VERTEX_POINT ( 'NONE', #108 ) ;
#7 = CC_DESIGN_PERSON_AND_ORGANIZATION_ASSIGNMENT ( #27, #132, ( #141 ) ) ;
#8 = PLANE ( 'NONE',  #68 ) ;
#9 = AXIS2_PLACEMENT_3D ( 'NONE', #61, #114, #163 ) ;
#10 = DIRECTION ( 'NONE',  ( -3.297192064790947780E-30, 1.000000000000000000, -9.432558900623888576E-16 ) ) ;
#11 = CYLINDRICAL_SURFACE ( 'NONE', #109, 25.00000000000000000 ) ;
#12 = CARTESIAN_POINT ( 'NONE',  ( 0.0000000000000000000, 0.0000000000000000000, 0.0000000000000000000 ) ) ;
#13 = COORDINATED_UNIVERSAL_TIME_OFFSET ( 1, 0, .AHEAD. ) ;
#14 = CALENDAR_DATE ( 2021, 6, 12 ) ;
#15 =( NAMED_UNIT ( * ) SI_UNIT ( $, .STERADIAN. ) SOLID_ANGLE_UNIT ( ) );
#16 = EDGE_CURVE ( 'NONE', #100, #100, #25, .T. ) ;
#17 = CARTESIAN_POINT ( 'NONE',  ( 0.0000000000000000000, 0.0000000000000000000, 0.0000000000000000000 ) ) ;
#18 = ADVANCED_FACE ( 'NONE', ( #78, #130 ), #11, .T. ) ;
#19 = DIRECTION ( 'NONE',  ( -3.295111859635686294E-30, 1.000000000000000000, -9.437575458236554143E-16 ) ) ;
#20 = AXIS2_PLACEMENT_3D ( 'NONE', #112, #139, #19 ) ;
#21 = DIRECTION ( 'NONE',  ( 3.491481338843133355E-15, 9.437575458236554143E-16, 1.000000000000000000 ) ) ;
#22 = CLOSED_SHELL ( 'NONE', ( #99, #18, #93, #111 ) ) ;
#23 = EDGE_LOOP ( 'NONE', ( #128 ) ) ;
#24 = EDGE_LOOP ( 'NONE', ( #143 ) ) ;
#25 = CIRCLE ( 'NONE', #63, 6.500000000000000000 ) ;
#26 = APPLICATION_CONTEXT ( 'configuration controlled 3d designs of mechanical parts and assemblies' ) ;
#27 = PERSON_AND_ORGANIZATION ( #160, #95 ) ;
#28 = DATE_AND_TIME ( #168, #67 ) ;
#29 = APPLICATION_PROTOCOL_DEFINITION ( 'international standard', 'config_control_design', 1994, #153 ) ;
#30 = APPROVAL_PERSON_ORGANIZATION ( #55, #64, #4 ) ;
#31 = CARTESIAN_POINT ( 'NONE',  ( 0.0000000000000000000, 6.500000000000000000, 0.0000000000000000000 ) ) ;
#32 = CC_DESIGN_PERSON_AND_ORGANIZATION_ASSIGNMENT ( #83, #70, ( #91 ) ) ;
#33 = DIRECTION ( 'NONE',  ( -3.491481338843133355E-15, -9.437575458236554143E-16, -1.000000000000000000 ) ) ;
#34 = CARTESIAN_POINT ( 'NONE',  ( 3.047978470163010137E-29, 6.500000000000000000, 8.729757298868813470E-15 ) ) ;
#35 = CC_DESIGN_APPROVAL ( #64, ( #91 ) ) ;
#36 = EDGE_LOOP ( 'NONE', ( #101 ) ) ;
#37 = PRODUCT_DEFINITION_FORMATION_WITH_SPECIFIED_SOURCE ( 'ANY', '', #119, .NOT_KNOWN. ) ;
#38 = APPROVAL_STATUS ( 'not_yet_approved' ) ;
#39 = COORDINATED_UNIVERSAL_TIME_OFFSET ( 1, 0, .AHEAD. ) ;
#40 = COORDINATED_UNIVERSAL_TIME_OFFSET ( 1, 0, .AHEAD. ) ;
#41 = LOCAL_TIME ( 13, 59, 7.000000000000000000, #13 ) ;
#42 = DATE_AND_TIME ( #5, #41 ) ;
#43 =( NAMED_UNIT ( * ) PLANE_ANGLE_UNIT ( ) SI_UNIT ( $, .RADIAN. ) );
#44 = DIRECTION ( 'NONE',  ( -3.295111859635686294E-30, 1.000000000000000000, -9.437575458236554143E-16 ) ) ;
#45 = MANIFOLD_SOLID_BREP ( 'Corps-Déplacer/Copier1', #22 ) ;
#46 = CARTESIAN_POINT ( 'NONE',  ( 1.396592535537335975E-15, 3.775030183294845004E-16, 0.4000000000000236700 ) ) ;
#47 = EDGE_LOOP ( 'NONE', ( #116 ) ) ;
#48 = APPROVAL ( #82, 'UNSPECIFIED' ) ;
#49 = ORIENTED_EDGE ( 'NONE', *, *, #16, .F. ) ;
#50 = APPROVAL_ROLE ( '' ) ;
#51 = APPROVAL_PERSON_ORGANIZATION ( #79, #97, #50 ) ;
#52 = CC_DESIGN_SECURITY_CLASSIFICATION ( #141, ( #37 ) ) ;
#53 = COORDINATED_UNIVERSAL_TIME_OFFSET ( 1, 0, .AHEAD. ) ;
#54 = PRODUCT_DEFINITION_SHAPE ( 'NONE', 'NONE',  #91 ) ;
#55 = PERSON_AND_ORGANIZATION ( #160, #95 ) ;
#56 = DATE_AND_TIME ( #122, #169 ) ;
#57 = DESIGN_CONTEXT ( 'detailed design', #153, 'design' ) ;
#58 = CARTESIAN_POINT ( 'NONE',  ( 0.0000000000000000000, 25.00000000000000000, 0.0000000000000000000 ) ) ;
#59 = DIRECTION ( 'NONE',  ( -3.491481338843133355E-15, -9.437575458236554143E-16, -1.000000000000000000 ) ) ;
#60 = AXIS2_PLACEMENT_3D ( 'NONE', #98, #59, #125 ) ;
#61 = CARTESIAN_POINT ( 'NONE',  ( 8.237779649089216435E-29, 2.226695763247722613E-29, 2.359393864559138417E-14 ) ) ;
#62 = CC_DESIGN_APPROVAL ( #97, ( #141 ) ) ;
#63 = AXIS2_PLACEMENT_3D ( 'NONE', #89, #90, #129 ) ;
#64 = APPROVAL ( #85, 'UNSPECIFIED' ) ;
#65 = EDGE_LOOP ( 'NONE', ( #49 ) ) ;
#66 = DIRECTION ( 'NONE',  ( -3.295111859635686294E-30, 1.000000000000000000, -9.437575458236554143E-16 ) ) ;
#67 = LOCAL_TIME ( 13, 59, 7.000000000000000000, #118 ) ;
#68 = AXIS2_PLACEMENT_3D ( 'NONE', #34, #33, #44 ) ;
#69 = PERSON_AND_ORGANIZATION ( #160, #95 ) ;
#70 = PERSON_AND_ORGANIZATION_ROLE ( 'creator' ) ;
#71 = CARTESIAN_POINT ( 'NONE',  ( 1.396592535537253934E-15, 6.500000000000000000, 0.4000000000000001887 ) ) ;
#72 = DIRECTION ( 'NONE',  ( 0.0000000000000000000, 0.0000000000000000000, 1.000000000000000000 ) ) ;
#73 = PLANE ( 'NONE',  #142 ) ;
#74 = FACE_BOUND ( 'NONE', #47, .T. ) ;
#75 =( GEOMETRIC_REPRESENTATION_CONTEXT ( 3 ) GLOBAL_UNCERTAINTY_ASSIGNED_CONTEXT ( ( #123 ) ) GLOBAL_UNIT_ASSIGNED_CONTEXT ( ( #150, #43, #15 ) ) REPRESENTATION_CONTEXT ( 'NONE', 'WORKASPACE' ) );
#76 = FACE_OUTER_BOUND ( 'NONE', #102, .T. ) ;
#77 = ORIENTED_EDGE ( 'NONE', *, *, #131, .T. ) ;
#78 = FACE_OUTER_BOUND ( 'NONE', #24, .T. ) ;
#79 = PERSON_AND_ORGANIZATION ( #160, #95 ) ;
#80 = SHAPE_DEFINITION_REPRESENTATION ( #54, #133 ) ;
#81 = CALENDAR_DATE ( 2021, 6, 12 ) ;
#82 = APPROVAL_STATUS ( 'not_yet_approved' ) ;
#83 = PERSON_AND_ORGANIZATION ( #160, #95 ) ;
#84 = CIRCLE ( 'NONE', #9, 25.00000000000000000 ) ;
#85 = APPROVAL_STATUS ( 'not_yet_approved' ) ;
#86 = PRODUCT_RELATED_PRODUCT_CATEGORY ( 'detail', '', ( #119 ) ) ;
#87 = CARTESIAN_POINT ( 'NONE',  ( 1.396592535537284305E-15, 6.500000000000000000, 0.4000000000000088485 ) ) ;
#88 = FACE_OUTER_BOUND ( 'NONE', #36, .T. ) ;
#89 = CARTESIAN_POINT ( 'NONE',  ( 1.396592535537275233E-15, 3.775030183294681315E-16, 0.4000000000000062950 ) ) ;
#90 = DIRECTION ( 'NONE',  ( -3.491481338843133355E-15, -9.437575458236554143E-16, -1.000000000000000000 ) ) ;
#91 = PRODUCT_DEFINITION ( 'UNKNOWN', '', #37, #57 ) ;
#92 = PERSON_AND_ORGANIZATION ( #160, #95 ) ;
#93 = ADVANCED_FACE ( 'NONE', ( #166, #152 ), #73, .T. ) ;
#94 = DATE_TIME_ROLE ( 'creation_date' ) ;
#95 = ORGANIZATION ( 'UNSPECIFIED', 'UNSPECIFIED', '' ) ;
#96 = VERTEX_POINT ( 'NONE', #31 ) ;
#97 = APPROVAL ( #38, 'UNSPECIFIED' ) ;
#98 = CARTESIAN_POINT ( 'NONE',  ( 0.0000000000000000000, 0.0000000000000000000, 0.0000000000000000000 ) ) ;
#99 = ADVANCED_FACE ( 'NONE', ( #88, #74 ), #8, .T. ) ;
#100 = VERTEX_POINT ( 'NONE', #71 ) ;
#101 = ORIENTED_EDGE ( 'NONE', *, *, #164, .T. ) ;
#102 = EDGE_LOOP ( 'NONE', ( #77 ) ) ;
#103 = CC_DESIGN_PERSON_AND_ORGANIZATION_ASSIGNMENT ( #158, #167, ( #37 ) ) ;
#104 = SECURITY_CLASSIFICATION_LEVEL ( 'unclassified' ) ;
#105 = DIRECTION ( 'NONE',  ( 1.000000000000000000, 0.0000000000000000000, 0.0000000000000000000 ) ) ;
#106 = PERSON_AND_ORGANIZATION_ROLE ( 'design_owner' ) ;
#107 = LOCAL_TIME ( 13, 59, 7.000000000000000000, #39 ) ;
#108 = CARTESIAN_POINT ( 'NONE',  ( 1.396592535537253539E-15, 25.00000000000000000, 0.4000000000000000777 ) ) ;
#109 = AXIS2_PLACEMENT_3D ( 'NONE', #12, #115, #66 ) ;
#110 = VERTEX_POINT ( 'NONE', #58 ) ;
#111 = ADVANCED_FACE ( 'NONE', ( #76, #140 ), #151, .F. ) ;
#112 = CARTESIAN_POINT ( 'NONE',  ( 2.141822708763195881E-29, 5.789408984444078906E-30, 6.134424047853760390E-15 ) ) ;
#113 = APPROVAL_PERSON_ORGANIZATION ( #149, #48, #134 ) ;
#114 = DIRECTION ( 'NONE',  ( -3.491481338843133355E-15, -9.437575458236554143E-16, -1.000000000000000000 ) ) ;
#115 = DIRECTION ( 'NONE',  ( -3.491481338843133355E-15, -9.437575458236554143E-16, -1.000000000000000000 ) ) ;
#116 = ORIENTED_EDGE ( 'NONE', *, *, #131, .F. ) ;
#117 = DATE_TIME_ROLE ( 'classification_date' ) ;
#118 = COORDINATED_UNIVERSAL_TIME_OFFSET ( 1, 0, .AHEAD. ) ;
#119 = PRODUCT ( '35234', '35234', '', ( #3 ) ) ;
#120 = APPLICATION_PROTOCOL_DEFINITION ( 'international standard', 'config_control_design', 1994, #26 ) ;
#121 = LOCAL_TIME ( 13, 59, 7.000000000000000000, #53 ) ;
#122 = CALENDAR_DATE ( 2021, 6, 12 ) ;
#123 = UNCERTAINTY_MEASURE_WITH_UNIT (LENGTH_MEASURE( 1.000000000000000082E-05 ), #150, 'distance_accuracy_value', 'NONE');
#124 = APPROVAL_DATE_TIME ( #42, #48 ) ;
#125 = DIRECTION ( 'NONE',  ( -3.295111859635686294E-30, 1.000000000000000000, -9.437575458236554143E-16 ) ) ;
#126 = DIRECTION ( 'NONE',  ( -3.491481338843133355E-15, -9.437575458236554143E-16, -1.000000000000000000 ) ) ;
#127 = AXIS2_PLACEMENT_3D ( 'NONE', #46, #126, #10 ) ;
#128 = ORIENTED_EDGE ( 'NONE', *, *, #138, .F. ) ;
#129 = DIRECTION ( 'NONE',  ( -3.288895751184356826E-30, 1.000000000000000000, -9.424218883912460708E-16 ) ) ;
#130 = FACE_OUTER_BOUND ( 'NONE', #165, .T. ) ;
#131 = EDGE_CURVE ( 'NONE', #96, #96, #157, .T. ) ;
#132 = PERSON_AND_ORGANIZATION_ROLE ( 'classification_officer' ) ;
#133 = ADVANCED_BREP_SHAPE_REPRESENTATION ( '35234', ( #45, #148 ), #75 ) ;
#134 = APPROVAL_ROLE ( '' ) ;
#135 = CC_DESIGN_PERSON_AND_ORGANIZATION_ASSIGNMENT ( #92, #146, ( #37 ) ) ;
#136 = CC_DESIGN_APPROVAL ( #48, ( #37 ) ) ;
#137 = DATE_AND_TIME ( #14, #107 ) ;
#138 = EDGE_CURVE ( 'NONE', #6, #6, #161, .T. ) ;
#139 = DIRECTION ( 'NONE',  ( -3.491481338843133355E-15, -9.437575458236554143E-16, -1.000000000000000000 ) ) ;
#140 = FACE_OUTER_BOUND ( 'NONE', #65, .T. ) ;
#141 = SECURITY_CLASSIFICATION ( '', '', #104 ) ;
#142 = AXIS2_PLACEMENT_3D ( 'NONE', #87, #21, #162 ) ;
#143 = ORIENTED_EDGE ( 'NONE', *, *, #138, .T. ) ;
#144 = EDGE_LOOP ( 'NONE', ( #156 ) ) ;
#145 = DATE_AND_TIME ( #81, #121 ) ;
#146 = PERSON_AND_ORGANIZATION_ROLE ( 'creator' ) ;
#147 = APPROVAL_DATE_TIME ( #137, #64 ) ;
#148 = AXIS2_PLACEMENT_3D ( 'NONE', #17, #72, #105 ) ;
#149 = PERSON_AND_ORGANIZATION ( #160, #95 ) ;
#150 =( LENGTH_UNIT ( ) NAMED_UNIT ( * ) SI_UNIT ( .MILLI., .METRE. ) );
#151 = CYLINDRICAL_SURFACE ( 'NONE', #60, 6.500000000000000000 ) ;
#152 = FACE_OUTER_BOUND ( 'NONE', #23, .T. ) ;
#153 = APPLICATION_CONTEXT ( 'configuration controlled 3d designs of mechanical parts and assemblies' ) ;
#154 = CC_DESIGN_PERSON_AND_ORGANIZATION_ASSIGNMENT ( #69, #106, ( #119 ) ) ;
#155 = ORIENTED_EDGE ( 'NONE', *, *, #164, .F. ) ;
#156 = ORIENTED_EDGE ( 'NONE', *, *, #16, .T. ) ;
#157 = CIRCLE ( 'NONE', #20, 6.500000000000000000 ) ;
#158 = PERSON_AND_ORGANIZATION ( #160, #95 ) ;
#159 = CC_DESIGN_DATE_AND_TIME_ASSIGNMENT ( #28, #117, ( #141 ) ) ;
#160 = PERSON ( 'UNSPECIFIED', 'UNSPECIFIED', 'UNSPECIFIED', ('UNSPECIFIED'), ('UNSPECIFIED'), ('UNSPECIFIED') ) ;
#161 = CIRCLE ( 'NONE', #127, 25.00000000000000000 ) ;
#162 = DIRECTION ( 'NONE',  ( 3.295111859635686294E-30, -1.000000000000000000, 9.437575458236554143E-16 ) ) ;
#163 = DIRECTION ( 'NONE',  ( -3.295111859635686294E-30, 1.000000000000000000, -9.437575458236554143E-16 ) ) ;
#164 = EDGE_CURVE ( 'NONE', #110, #110, #84, .T. ) ;
#165 = EDGE_LOOP ( 'NONE', ( #155 ) ) ;
#166 = FACE_BOUND ( 'NONE', #144, .T. ) ;
#167 = PERSON_AND_ORGANIZATION_ROLE ( 'design_supplier' ) ;
#168 = CALENDAR_DATE ( 2021, 6, 12 ) ;
#169 = LOCAL_TIME ( 13, 59, 7.000000000000000000, #40 ) ;
ENDSEC;
END-ISO-10303-21;
