ISO-10303-21;
HEADER;
FILE_DESCRIPTION (( 'STEP AP203' ),
    '1' );
FILE_NAME ('35233.step',
    '2021-12-06T12:59:06',
    ( '' ),
    ( '' ),
    'SwSTEP 2.0',
    'SolidWorks 2019',
    '' );
FILE_SCHEMA (( 'CONFIG_CONTROL_DESIGN' ));
ENDSEC;

DATA;
#1 = FACE_OUTER_BOUND ( 'NONE', #106, .T. ) ;
#2 = VERTEX_POINT ( 'NONE', #136 ) ;
#3 = CALENDAR_DATE ( 2021, 6, 12 ) ;
#4 = VERTEX_POINT ( 'NONE', #26 ) ;
#5 = DIRECTION ( 'NONE',  ( -3.491481338843133355E-15, 4.082155997157845174E-16, -1.000000000000000000 ) ) ;
#6 = APPROVAL_ROLE ( '' ) ;
#7 = CIRCLE ( 'NONE', #108, 31.50000000000000000 ) ;
#8 = AXIS2_PLACEMENT_3D ( 'NONE', #72, #145, #164 ) ;
#9 = PERSON_AND_ORGANIZATION ( #90, #23 ) ;
#10 = APPLICATION_CONTEXT ( 'configuration controlled 3d designs of mechanical parts and assemblies' ) ;
#11 = APPROVAL ( #24, 'UNSPECIFIED' ) ;
#12 = FACE_BOUND ( 'NONE', #38, .T. ) ;
#13 = LOCAL_TIME ( 13, 59, 6.000000000000000000, #159 ) ;
#14 =( NAMED_UNIT ( * ) SI_UNIT ( $, .STERADIAN. ) SOLID_ANGLE_UNIT ( ) );
#15 = PRODUCT_DEFINITION ( 'UNKNOWN', '', #141, #76 ) ;
#16 = FACE_OUTER_BOUND ( 'NONE', #104, .T. ) ;
#17 = COORDINATED_UNIVERSAL_TIME_OFFSET ( 1, 0, .AHEAD. ) ;
#18 = DIRECTION ( 'NONE',  ( 0.0000000000000000000, 0.0000000000000000000, 1.000000000000000000 ) ) ;
#19 = CALENDAR_DATE ( 2021, 6, 12 ) ;
#20 = APPROVAL_PERSON_ORGANIZATION ( #34, #66, #43 ) ;
#21 = CC_DESIGN_DATE_AND_TIME_ASSIGNMENT ( #37, #100, ( #88 ) ) ;
#22 = PERSON_AND_ORGANIZATION ( #90, #23 ) ;
#23 = ORGANIZATION ( 'UNSPECIFIED', 'UNSPECIFIED', '' ) ;
#24 = APPROVAL_STATUS ( 'not_yet_approved' ) ;
#25 = DIRECTION ( 'NONE',  ( 1.418462689199487946E-30, 1.000000000000000000, 4.061455757247286443E-16 ) ) ;
#26 = CARTESIAN_POINT ( 'NONE',  ( 4.189777606611759237E-15, 31.50000000000000000, 1.199999999999999956 ) ) ;
#27 = CIRCLE ( 'NONE', #62, 8.000000000000000000 ) ;
#28 = PLANE ( 'NONE',  #39 ) ;
#29 = EDGE_CURVE ( 'NONE', #4, #4, #7, .T. ) ;
#30 = DIRECTION ( 'NONE',  ( 1.444447458290426890E-30, 1.000000000000000000, 4.065758146820641628E-16 ) ) ;
#31 = PERSON_AND_ORGANIZATION ( #90, #23 ) ;
#32 = UNCERTAINTY_MEASURE_WITH_UNIT (LENGTH_MEASURE( 1.000000000000000082E-05 ), #131, 'distance_accuracy_value', 'NONE');
#33 =( NAMED_UNIT ( * ) PLANE_ANGLE_UNIT ( ) SI_UNIT ( $, .RADIAN. ) );
#34 = PERSON_AND_ORGANIZATION ( #90, #23 ) ;
#35 = VERTEX_POINT ( 'NONE', #83 ) ;
#36 = DATE_AND_TIME ( #165, #13 ) ;
#37 = DATE_AND_TIME ( #3, #46 ) ;
#38 = EDGE_LOOP ( 'NONE', ( #154 ) ) ;
#39 = AXIS2_PLACEMENT_3D ( 'NONE', #78, #102, #133 ) ;
#40 = CC_DESIGN_PERSON_AND_ORGANIZATION_ASSIGNMENT ( #137, #161, ( #88 ) ) ;
#41 = COORDINATED_UNIVERSAL_TIME_OFFSET ( 1, 0, .AHEAD. ) ;
#42 = PERSON_AND_ORGANIZATION_ROLE ( 'design_owner' ) ;
#43 = APPROVAL_ROLE ( '' ) ;
#44 = CARTESIAN_POINT ( 'NONE',  ( -1.140221718905856049E-29, 1.333119806810541088E-30, -3.265724797726276139E-15 ) ) ;
#45 = DATE_AND_TIME ( #111, #94 ) ;
#46 = LOCAL_TIME ( 13, 59, 6.000000000000000000, #77 ) ;
#47 = CYLINDRICAL_SURFACE ( 'NONE', #126, 31.50000000000000000 ) ;
#48 = CC_DESIGN_APPROVAL ( #11, ( #15 ) ) ;
#49 = FACE_OUTER_BOUND ( 'NONE', #155, .T. ) ;
#50 = CALENDAR_DATE ( 2021, 6, 12 ) ;
#51 = PRODUCT ( '35233', '35233', '', ( #55 ) ) ;
#52 = CIRCLE ( 'NONE', #8, 31.50000000000000000 ) ;
#53 = EDGE_LOOP ( 'NONE', ( #128 ) ) ;
#54 = PLANE ( 'NONE',  #73 ) ;
#55 = MECHANICAL_CONTEXT ( 'NONE', #10, 'mechanical' ) ;
#56 = COORDINATED_UNIVERSAL_TIME_OFFSET ( 1, 0, .AHEAD. ) ;
#57 = ADVANCED_BREP_SHAPE_REPRESENTATION ( '35233', ( #166, #97 ), #79 ) ;
#58 = VERTEX_POINT ( 'NONE', #113 ) ;
#59 = FACE_OUTER_BOUND ( 'NONE', #68, .T. ) ;
#60 = CC_DESIGN_PERSON_AND_ORGANIZATION_ASSIGNMENT ( #9, #115, ( #15 ) ) ;
#61 = DIRECTION ( 'NONE',  ( 1.000000000000000000, 0.0000000000000000000, 0.0000000000000000000 ) ) ;
#62 = AXIS2_PLACEMENT_3D ( 'NONE', #44, #125, #98 ) ;
#63 = APPLICATION_PROTOCOL_DEFINITION ( 'international standard', 'config_control_design', 1994, #84 ) ;
#64 = APPROVAL_DATE_TIME ( #45, #11 ) ;
#65 = PERSON_AND_ORGANIZATION_ROLE ( 'creator' ) ;
#66 = APPROVAL ( #87, 'UNSPECIFIED' ) ;
#67 = ORIENTED_EDGE ( 'NONE', *, *, #29, .T. ) ;
#68 = EDGE_LOOP ( 'NONE', ( #158 ) ) ;
#69 = ORIENTED_EDGE ( 'NONE', *, *, #156, .F. ) ;
#70 = CARTESIAN_POINT ( 'NONE',  ( -1.674700649642975726E-29, 8.000000000000000000, -4.796533296660467858E-15 ) ) ;
#71 = ADVANCED_FACE ( 'NONE', ( #81, #12 ), #54, .T. ) ;
#72 = CARTESIAN_POINT ( 'NONE',  ( -4.489623018191807921E-29, 5.249159239316504824E-30, -1.285879139104721264E-14 ) ) ;
#73 = AXIS2_PLACEMENT_3D ( 'NONE', #70, #121, #135 ) ;
#74 = CARTESIAN_POINT ( 'NONE',  ( 0.0000000000000000000, 0.0000000000000000000, 0.0000000000000000000 ) ) ;
#75 = APPROVAL_DATE_TIME ( #162, #120 ) ;
#76 = DESIGN_CONTEXT ( 'detailed design', #84, 'design' ) ;
#77 = COORDINATED_UNIVERSAL_TIME_OFFSET ( 1, 0, .AHEAD. ) ;
#78 = CARTESIAN_POINT ( 'NONE',  ( 4.189777606611743460E-15, 8.000000000000000000, 1.199999999999995071 ) ) ;
#79 =( GEOMETRIC_REPRESENTATION_CONTEXT ( 3 ) GLOBAL_UNCERTAINTY_ASSIGNED_CONTEXT ( ( #32 ) ) GLOBAL_UNIT_ASSIGNED_CONTEXT ( ( #131, #33, #14 ) ) REPRESENTATION_CONTEXT ( 'NONE', 'WORKASPACE' ) );
#80 = DIRECTION ( 'NONE',  ( -3.491481338843133355E-15, 4.082155997157845174E-16, -1.000000000000000000 ) ) ;
#81 = FACE_OUTER_BOUND ( 'NONE', #53, .T. ) ;
#82 = EDGE_CURVE ( 'NONE', #2, #2, #52, .T. ) ;
#83 = CARTESIAN_POINT ( 'NONE',  ( 4.189777606611759237E-15, 8.000000000000000000, 1.199999999999999956 ) ) ;
#84 = APPLICATION_CONTEXT ( 'configuration controlled 3d designs of mechanical parts and assemblies' ) ;
#85 = LOCAL_TIME ( 13, 59, 6.000000000000000000, #41 ) ;
#86 = DIRECTION ( 'NONE',  ( 1.425277148632319711E-30, 1.000000000000000000, 4.082155997157845174E-16 ) ) ;
#87 = APPROVAL_STATUS ( 'not_yet_approved' ) ;
#88 = SECURITY_CLASSIFICATION ( '', '', #92 ) ;
#89 = SHAPE_DEFINITION_REPRESENTATION ( #96, #57 ) ;
#90 = PERSON ( 'UNSPECIFIED', 'UNSPECIFIED', 'UNSPECIFIED', ('UNSPECIFIED'), ('UNSPECIFIED'), ('UNSPECIFIED') ) ;
#91 = FACE_OUTER_BOUND ( 'NONE', #93, .T. ) ;
#92 = SECURITY_CLASSIFICATION_LEVEL ( 'unclassified' ) ;
#93 = EDGE_LOOP ( 'NONE', ( #67 ) ) ;
#94 = LOCAL_TIME ( 13, 59, 6.000000000000000000, #56 ) ;
#95 = CC_DESIGN_PERSON_AND_ORGANIZATION_ASSIGNMENT ( #123, #148, ( #141 ) ) ;
#96 = PRODUCT_DEFINITION_SHAPE ( 'NONE', 'NONE',  #15 ) ;
#97 = AXIS2_PLACEMENT_3D ( 'NONE', #124, #18, #61 ) ;
#98 = DIRECTION ( 'NONE',  ( 1.425277148632319886E-30, 1.000000000000000000, 4.082155997157845174E-16 ) ) ;
#99 = CYLINDRICAL_SURFACE ( 'NONE', #130, 8.000000000000000000 ) ;
#100 = DATE_TIME_ROLE ( 'classification_date' ) ;
#101 = DIRECTION ( 'NONE',  ( -3.491481338843133355E-15, 4.082155997157845174E-16, -1.000000000000000000 ) ) ;
#102 = DIRECTION ( 'NONE',  ( 3.491481338843133355E-15, -4.082155997157845174E-16, 1.000000000000000000 ) ) ;
#103 = CC_DESIGN_PERSON_AND_ORGANIZATION_ASSIGNMENT ( #110, #42, ( #51 ) ) ;
#104 = EDGE_LOOP ( 'NONE', ( #69 ) ) ;
#105 = ORIENTED_EDGE ( 'NONE', *, *, #29, .F. ) ;
#106 = EDGE_LOOP ( 'NONE', ( #105 ) ) ;
#107 = ORIENTED_EDGE ( 'NONE', *, *, #156, .T. ) ;
#108 = AXIS2_PLACEMENT_3D ( 'NONE', #142, #80, #25 ) ;
#109 = ADVANCED_FACE ( 'NONE', ( #160, #1 ), #28, .T. ) ;
#110 = PERSON_AND_ORGANIZATION ( #90, #23 ) ;
#111 = CALENDAR_DATE ( 2021, 6, 12 ) ;
#112 = DATE_AND_TIME ( #19, #117 ) ;
#113 = CARTESIAN_POINT ( 'NONE',  ( -1.368455531567204171E-45, 8.000000000000000000, 0.0000000000000000000 ) ) ;
#114 = APPROVAL_PERSON_ORGANIZATION ( #22, #120, #134 ) ;
#115 = PERSON_AND_ORGANIZATION_ROLE ( 'creator' ) ;
#116 = ADVANCED_FACE ( 'NONE', ( #91, #49 ), #47, .T. ) ;
#117 = LOCAL_TIME ( 13, 59, 6.000000000000000000, #17 ) ;
#118 = APPROVAL_PERSON_ORGANIZATION ( #146, #11, #6 ) ;
#119 = EDGE_CURVE ( 'NONE', #58, #58, #27, .T. ) ;
#120 = APPROVAL ( #132, 'UNSPECIFIED' ) ;
#121 = DIRECTION ( 'NONE',  ( -3.491481338843133355E-15, 4.082155997157845174E-16, -1.000000000000000000 ) ) ;
#122 = DIRECTION ( 'NONE',  ( 1.425277148632319886E-30, 1.000000000000000000, 4.082155997157845174E-16 ) ) ;
#123 = PERSON_AND_ORGANIZATION ( #90, #23 ) ;
#124 = CARTESIAN_POINT ( 'NONE',  ( 0.0000000000000000000, 0.0000000000000000000, 0.0000000000000000000 ) ) ;
#125 = DIRECTION ( 'NONE',  ( -3.491481338843133355E-15, 4.082155997157845174E-16, -1.000000000000000000 ) ) ;
#126 = AXIS2_PLACEMENT_3D ( 'NONE', #74, #101, #86 ) ;
#127 = ADVANCED_FACE ( 'NONE', ( #59, #16 ), #99, .F. ) ;
#128 = ORIENTED_EDGE ( 'NONE', *, *, #82, .T. ) ;
#129 = EDGE_LOOP ( 'NONE', ( #107 ) ) ;
#130 = AXIS2_PLACEMENT_3D ( 'NONE', #147, #152, #122 ) ;
#131 =( LENGTH_UNIT ( ) NAMED_UNIT ( * ) SI_UNIT ( .MILLI., .METRE. ) );
#132 = APPROVAL_STATUS ( 'not_yet_approved' ) ;
#133 = DIRECTION ( 'NONE',  ( -1.425277148632319886E-30, -1.000000000000000000, -4.082155997157845174E-16 ) ) ;
#134 = APPROVAL_ROLE ( '' ) ;
#135 = DIRECTION ( 'NONE',  ( 1.425277148632319886E-30, 1.000000000000000000, 4.082155997157845174E-16 ) ) ;
#136 = CARTESIAN_POINT ( 'NONE',  ( -5.473822126268816683E-45, 31.50000000000000000, 0.0000000000000000000 ) ) ;
#137 = PERSON_AND_ORGANIZATION ( #90, #23 ) ;
#138 = CC_DESIGN_APPROVAL ( #120, ( #141 ) ) ;
#139 = DATE_TIME_ROLE ( 'creation_date' ) ;
#140 = PRODUCT_RELATED_PRODUCT_CATEGORY ( 'detail', '', ( #51 ) ) ;
#141 = PRODUCT_DEFINITION_FORMATION_WITH_SPECIFIED_SOURCE ( 'ANY', '', #51, .NOT_KNOWN. ) ;
#142 = CARTESIAN_POINT ( 'NONE',  ( 4.189777606611715061E-15, -4.898587196589361553E-16, 1.199999999999987077 ) ) ;
#143 = CC_DESIGN_APPROVAL ( #66, ( #88 ) ) ;
#144 = CIRCLE ( 'NONE', #157, 8.000000000000000000 ) ;
#145 = DIRECTION ( 'NONE',  ( -3.491481338843133355E-15, 4.082155997157845174E-16, -1.000000000000000000 ) ) ;
#146 = PERSON_AND_ORGANIZATION ( #90, #23 ) ;
#147 = CARTESIAN_POINT ( 'NONE',  ( 0.0000000000000000000, 0.0000000000000000000, 0.0000000000000000000 ) ) ;
#148 = PERSON_AND_ORGANIZATION_ROLE ( 'design_supplier' ) ;
#149 = CC_DESIGN_SECURITY_CLASSIFICATION ( #88, ( #141 ) ) ;
#150 = CARTESIAN_POINT ( 'NONE',  ( 4.189777606611748193E-15, -4.898587196589400010E-16, 1.199999999999996625 ) ) ;
#151 = APPROVAL_DATE_TIME ( #112, #66 ) ;
#152 = DIRECTION ( 'NONE',  ( -3.491481338843133355E-15, 4.082155997157845174E-16, -1.000000000000000000 ) ) ;
#153 = CC_DESIGN_DATE_AND_TIME_ASSIGNMENT ( #36, #139, ( #15 ) ) ;
#154 = ORIENTED_EDGE ( 'NONE', *, *, #119, .F. ) ;
#155 = EDGE_LOOP ( 'NONE', ( #167 ) ) ;
#156 = EDGE_CURVE ( 'NONE', #35, #35, #144, .T. ) ;
#157 = AXIS2_PLACEMENT_3D ( 'NONE', #150, #5, #30 ) ;
#158 = ORIENTED_EDGE ( 'NONE', *, *, #119, .T. ) ;
#159 = COORDINATED_UNIVERSAL_TIME_OFFSET ( 1, 0, .AHEAD. ) ;
#160 = FACE_BOUND ( 'NONE', #129, .T. ) ;
#161 = PERSON_AND_ORGANIZATION_ROLE ( 'classification_officer' ) ;
#162 = DATE_AND_TIME ( #50, #85 ) ;
#163 = CLOSED_SHELL ( 'NONE', ( #71, #116, #109, #127 ) ) ;
#164 = DIRECTION ( 'NONE',  ( 1.425277148632319711E-30, 1.000000000000000000, 4.082155997157845174E-16 ) ) ;
#165 = CALENDAR_DATE ( 2021, 6, 12 ) ;
#166 = MANIFOLD_SOLID_BREP ( 'Corps-Déplacer/Copier1', #163 ) ;
#167 = ORIENTED_EDGE ( 'NONE', *, *, #82, .F. ) ;
#168 = CC_DESIGN_PERSON_AND_ORGANIZATION_ASSIGNMENT ( #31, #65, ( #141 ) ) ;
#169 = APPLICATION_PROTOCOL_DEFINITION ( 'international standard', 'config_control_design', 1994, #10 ) ;
ENDSEC;
END-ISO-10303-21;
