ISO-10303-21;
HEADER;
FILE_DESCRIPTION (( 'STEP AP203' ),
    '1' );
FILE_NAME ('35141.step',
    '2021-12-06T12:59:05',
    ( '' ),
    ( '' ),
    'SwSTEP 2.0',
    'SolidWorks 2019',
    '' );
FILE_SCHEMA (( 'CONFIG_CONTROL_DESIGN' ));
ENDSEC;

DATA;
#1 = CALENDAR_DATE ( 2021, 6, 12 ) ;
#2 = UNCERTAINTY_MEASURE_WITH_UNIT (LENGTH_MEASURE( 1.000000000000000082E-05 ), #60, 'distance_accuracy_value', 'NONE');
#3 = ORIENTED_EDGE ( 'NONE', *, *, #110, .F. ) ;
#4 = EDGE_CURVE ( 'NONE', #67, #67, #68, .T. ) ;
#5 = CYLINDRICAL_SURFACE ( 'NONE', #116, 11.00000000000000000 ) ;
#6 = CARTESIAN_POINT ( 'NONE',  ( -1.567804863495551874E-29, 1.833039734364493887E-30, -4.490371596873629199E-15 ) ) ;
#7 = LOCAL_TIME ( 13, 59, 5.000000000000000000, #55 ) ;
#8 = CC_DESIGN_PERSON_AND_ORGANIZATION_ASSIGNMENT ( #102, #75, ( #94 ) ) ;
#9 = CARTESIAN_POINT ( 'NONE',  ( -8.907982178951999006E-29, 1.041499849070735152E-29, -2.551347498223653337E-14 ) ) ;
#10 = VERTEX_POINT ( 'NONE', #120 ) ;
#11 = ADVANCED_FACE ( 'NONE', ( #77, #132 ), #5, .F. ) ;
#12 = DATE_TIME_ROLE ( 'creation_date' ) ;
#13 = APPROVAL_PERSON_ORGANIZATION ( #136, #91, #29 ) ;
#14 = COORDINATED_UNIVERSAL_TIME_OFFSET ( 1, 0, .AHEAD. ) ;
#15 = CC_DESIGN_DATE_AND_TIME_ASSIGNMENT ( #37, #12, ( #133 ) ) ;
#16 = DATE_TIME_ROLE ( 'classification_date' ) ;
#17 = ORIENTED_EDGE ( 'NONE', *, *, #155, .T. ) ;
#18 = ORIENTED_EDGE ( 'NONE', *, *, #126, .T. ) ;
#19 = APPROVAL_PERSON_ORGANIZATION ( #84, #38, #148 ) ;
#20 = AXIS2_PLACEMENT_3D ( 'NONE', #9, #165, #134 ) ;
#21 = CARTESIAN_POINT ( 'NONE',  ( 4.189777606611760026E-15, 62.50000000000000000, 1.200000000000000178 ) ) ;
#22 = PLANE ( 'NONE',  #52 ) ;
#23 = APPROVAL_DATE_TIME ( #99, #107 ) ;
#24 = CC_DESIGN_APPROVAL ( #38, ( #94 ) ) ;
#25 = APPROVAL_STATUS ( 'not_yet_approved' ) ;
#26 = ADVANCED_FACE ( 'NONE', ( #48, #34 ), #152, .T. ) ;
#27 = COORDINATED_UNIVERSAL_TIME_OFFSET ( 1, 0, .AHEAD. ) ;
#28 = ORIENTED_EDGE ( 'NONE', *, *, #4, .F. ) ;
#29 = APPROVAL_ROLE ( '' ) ;
#30 = EDGE_LOOP ( 'NONE', ( #18 ) ) ;
#31 = EDGE_LOOP ( 'NONE', ( #149 ) ) ;
#32 =( NAMED_UNIT ( * ) SI_UNIT ( $, .STERADIAN. ) SOLID_ANGLE_UNIT ( ) );
#33 = CARTESIAN_POINT ( 'NONE',  ( 0.0000000000000000000, 0.0000000000000000000, 0.0000000000000000000 ) ) ;
#34 = FACE_OUTER_BOUND ( 'NONE', #79, .T. ) ;
#35 = DIRECTION ( 'NONE',  ( 3.491481338843133355E-15, -4.082155997157845174E-16, 1.000000000000000000 ) ) ;
#36 = CARTESIAN_POINT ( 'NONE',  ( 0.0000000000000000000, 62.50000000000000000, 0.0000000000000000000 ) ) ;
#37 = DATE_AND_TIME ( #86, #59 ) ;
#38 = APPROVAL ( #144, 'UNSPECIFIED' ) ;
#39 = SECURITY_CLASSIFICATION_LEVEL ( 'unclassified' ) ;
#40 = DATE_AND_TIME ( #129, #139 ) ;
#41 = AXIS2_PLACEMENT_3D ( 'NONE', #122, #49, #96 ) ;
#42 = PERSON_AND_ORGANIZATION_ROLE ( 'creator' ) ;
#43 = ORIENTED_EDGE ( 'NONE', *, *, #126, .F. ) ;
#44 = CIRCLE ( 'NONE', #73, 62.50000000000000000 ) ;
#45 = EDGE_LOOP ( 'NONE', ( #58 ) ) ;
#46 = CARTESIAN_POINT ( 'NONE',  ( 4.189777606611758449E-15, 11.00000000000000000, 1.199999999999999734 ) ) ;
#47 =( NAMED_UNIT ( * ) PLANE_ANGLE_UNIT ( ) SI_UNIT ( $, .RADIAN. ) );
#48 = FACE_BOUND ( 'NONE', #78, .T. ) ;
#49 = DIRECTION ( 'NONE',  ( 0.0000000000000000000, 0.0000000000000000000, 1.000000000000000000 ) ) ;
#50 = CARTESIAN_POINT ( 'NONE',  ( -3.670088657728223286E-29, 11.00000000000000000, -1.051155169268145090E-14 ) ) ;
#51 = PERSON_AND_ORGANIZATION_ROLE ( 'classification_officer' ) ;
#52 = AXIS2_PLACEMENT_3D ( 'NONE', #50, #138, #140 ) ;
#53 = APPROVAL_PERSON_ORGANIZATION ( #105, #107, #54 ) ;
#54 = APPROVAL_ROLE ( '' ) ;
#55 = COORDINATED_UNIVERSAL_TIME_OFFSET ( 1, 0, .AHEAD. ) ;
#56 = CARTESIAN_POINT ( 'NONE',  ( 4.189777606611743460E-15, -4.898587196589394093E-16, 1.199999999999995071 ) ) ;
#57 = AXIS2_PLACEMENT_3D ( 'NONE', #56, #104, #161 ) ;
#58 = ORIENTED_EDGE ( 'NONE', *, *, #155, .F. ) ;
#59 = LOCAL_TIME ( 13, 59, 5.000000000000000000, #14 ) ;
#60 =( LENGTH_UNIT ( ) NAMED_UNIT ( * ) SI_UNIT ( .MILLI., .METRE. ) );
#61 = PERSON_AND_ORGANIZATION ( #72, #112 ) ;
#62 = VERTEX_POINT ( 'NONE', #36 ) ;
#63 = FACE_OUTER_BOUND ( 'NONE', #30, .T. ) ;
#64 = APPROVAL_DATE_TIME ( #158, #91 ) ;
#65 = CIRCLE ( 'NONE', #20, 62.50000000000000000 ) ;
#66 = ORIENTED_EDGE ( 'NONE', *, *, #4, .T. ) ;
#67 = VERTEX_POINT ( 'NONE', #46 ) ;
#68 = CIRCLE ( 'NONE', #57, 11.00000000000000000 ) ;
#69 = ADVANCED_FACE ( 'NONE', ( #63, #123 ), #95, .T. ) ;
#70 = CARTESIAN_POINT ( 'NONE',  ( 4.189777606611723739E-15, 11.00000000000000000, 1.199999999999989519 ) ) ;
#71 = SHAPE_DEFINITION_REPRESENTATION ( #162, #127 ) ;
#72 = PERSON ( 'UNSPECIFIED', 'UNSPECIFIED', 'UNSPECIFIED', ('UNSPECIFIED'), ('UNSPECIFIED'), ('UNSPECIFIED') ) ;
#73 = AXIS2_PLACEMENT_3D ( 'NONE', #166, #83, #97 ) ;
#74 = LOCAL_TIME ( 13, 59, 5.000000000000000000, #88 ) ;
#75 = PERSON_AND_ORGANIZATION_ROLE ( 'creator' ) ;
#76 = EDGE_LOOP ( 'NONE', ( #28 ) ) ;
#77 = FACE_OUTER_BOUND ( 'NONE', #145, .T. ) ;
#78 = EDGE_LOOP ( 'NONE', ( #66 ) ) ;
#79 = EDGE_LOOP ( 'NONE', ( #43 ) ) ;
#80 = PRODUCT_RELATED_PRODUCT_CATEGORY ( 'detail', '', ( #130 ) ) ;
#81 =( GEOMETRIC_REPRESENTATION_CONTEXT ( 3 ) GLOBAL_UNCERTAINTY_ASSIGNED_CONTEXT ( ( #2 ) ) GLOBAL_UNIT_ASSIGNED_CONTEXT ( ( #60, #47, #32 ) ) REPRESENTATION_CONTEXT ( 'NONE', 'WORKASPACE' ) );
#82 = APPLICATION_PROTOCOL_DEFINITION ( 'international standard', 'config_control_design', 1994, #98 ) ;
#83 = DIRECTION ( 'NONE',  ( -3.491481338843133355E-15, 4.082155997157845174E-16, -1.000000000000000000 ) ) ;
#84 = PERSON_AND_ORGANIZATION ( #72, #112 ) ;
#85 = CALENDAR_DATE ( 2021, 6, 12 ) ;
#86 = CALENDAR_DATE ( 2021, 6, 12 ) ;
#87 = AXIS2_PLACEMENT_3D ( 'NONE', #70, #35, #109 ) ;
#88 = COORDINATED_UNIVERSAL_TIME_OFFSET ( 1, 0, .AHEAD. ) ;
#89 = PERSON_AND_ORGANIZATION ( #72, #112 ) ;
#90 = CLOSED_SHELL ( 'NONE', ( #141, #69, #26, #11 ) ) ;
#91 = APPROVAL ( #118, 'UNSPECIFIED' ) ;
#92 = VERTEX_POINT ( 'NONE', #21 ) ;
#93 = APPLICATION_PROTOCOL_DEFINITION ( 'international standard', 'config_control_design', 1994, #111 ) ;
#94 = PRODUCT_DEFINITION_FORMATION_WITH_SPECIFIED_SOURCE ( 'ANY', '', #130, .NOT_KNOWN. ) ;
#95 = CYLINDRICAL_SURFACE ( 'NONE', #121, 62.50000000000000000 ) ;
#96 = DIRECTION ( 'NONE',  ( 1.000000000000000000, 0.0000000000000000000, 0.0000000000000000000 ) ) ;
#97 = DIRECTION ( 'NONE',  ( 1.429810390713083897E-30, 1.000000000000000000, 4.093947403305264743E-16 ) ) ;
#98 = APPLICATION_CONTEXT ( 'configuration controlled 3d designs of mechanical parts and assemblies' ) ;
#99 = DATE_AND_TIME ( #85, #7 ) ;
#100 = CC_DESIGN_SECURITY_CLASSIFICATION ( #119, ( #94 ) ) ;
#101 = CC_DESIGN_PERSON_AND_ORGANIZATION_ASSIGNMENT ( #143, #117, ( #94 ) ) ;
#102 = PERSON_AND_ORGANIZATION ( #72, #112 ) ;
#103 = DESIGN_CONTEXT ( 'detailed design', #98, 'design' ) ;
#104 = DIRECTION ( 'NONE',  ( -3.491481338843133355E-15, 4.082155997157845174E-16, -1.000000000000000000 ) ) ;
#105 = PERSON_AND_ORGANIZATION ( #72, #112 ) ;
#106 = CARTESIAN_POINT ( 'NONE',  ( 0.0000000000000000000, 0.0000000000000000000, 0.0000000000000000000 ) ) ;
#107 = APPROVAL ( #25, 'UNSPECIFIED' ) ;
#108 = PERSON_AND_ORGANIZATION_ROLE ( 'design_owner' ) ;
#109 = DIRECTION ( 'NONE',  ( -1.425277148632319886E-30, -1.000000000000000000, -4.082155997157845174E-16 ) ) ;
#110 = EDGE_CURVE ( 'NONE', #62, #62, #65, .T. ) ;
#111 = APPLICATION_CONTEXT ( 'configuration controlled 3d designs of mechanical parts and assemblies' ) ;
#112 = ORGANIZATION ( 'UNSPECIFIED', 'UNSPECIFIED', '' ) ;
#113 = DIRECTION ( 'NONE',  ( -3.491481338843133355E-15, 4.082155997157845174E-16, -1.000000000000000000 ) ) ;
#114 = CALENDAR_DATE ( 2021, 6, 12 ) ;
#115 = CC_DESIGN_PERSON_AND_ORGANIZATION_ASSIGNMENT ( #61, #108, ( #130 ) ) ;
#116 = AXIS2_PLACEMENT_3D ( 'NONE', #106, #163, #167 ) ;
#117 = PERSON_AND_ORGANIZATION_ROLE ( 'design_supplier' ) ;
#118 = APPROVAL_STATUS ( 'not_yet_approved' ) ;
#119 = SECURITY_CLASSIFICATION ( '', '', #39 ) ;
#120 = CARTESIAN_POINT ( 'NONE',  ( -2.736911063134408342E-45, 11.00000000000000000, 0.0000000000000000000 ) ) ;
#121 = AXIS2_PLACEMENT_3D ( 'NONE', #33, #113, #168 ) ;
#122 = CARTESIAN_POINT ( 'NONE',  ( 0.0000000000000000000, 0.0000000000000000000, 0.0000000000000000000 ) ) ;
#123 = FACE_OUTER_BOUND ( 'NONE', #164, .T. ) ;
#124 = COORDINATED_UNIVERSAL_TIME_OFFSET ( 1, 0, .AHEAD. ) ;
#125 = CC_DESIGN_PERSON_AND_ORGANIZATION_ASSIGNMENT ( #157, #42, ( #133 ) ) ;
#126 = EDGE_CURVE ( 'NONE', #92, #92, #44, .T. ) ;
#127 = ADVANCED_BREP_SHAPE_REPRESENTATION ( '35141', ( #150, #41 ), #81 ) ;
#128 = AXIS2_PLACEMENT_3D ( 'NONE', #6, #137, #153 ) ;
#129 = CALENDAR_DATE ( 2021, 6, 12 ) ;
#130 = PRODUCT ( '35141', '35141', '', ( #154 ) ) ;
#131 = CC_DESIGN_PERSON_AND_ORGANIZATION_ASSIGNMENT ( #89, #51, ( #119 ) ) ;
#132 = FACE_OUTER_BOUND ( 'NONE', #76, .T. ) ;
#133 = PRODUCT_DEFINITION ( 'UNKNOWN', '', #94, #103 ) ;
#134 = DIRECTION ( 'NONE',  ( 1.425277148632319886E-30, 1.000000000000000000, 4.082155997157845174E-16 ) ) ;
#135 = CC_DESIGN_APPROVAL ( #91, ( #133 ) ) ;
#136 = PERSON_AND_ORGANIZATION ( #72, #112 ) ;
#137 = DIRECTION ( 'NONE',  ( -3.491481338843133355E-15, 4.082155997157845174E-16, -1.000000000000000000 ) ) ;
#138 = DIRECTION ( 'NONE',  ( -3.491481338843133355E-15, 4.082155997157845174E-16, -1.000000000000000000 ) ) ;
#139 = LOCAL_TIME ( 13, 59, 5.000000000000000000, #124 ) ;
#140 = DIRECTION ( 'NONE',  ( 1.425277148632319886E-30, 1.000000000000000000, 4.082155997157845174E-16 ) ) ;
#141 = ADVANCED_FACE ( 'NONE', ( #156, #151 ), #22, .T. ) ;
#142 = CC_DESIGN_APPROVAL ( #107, ( #119 ) ) ;
#143 = PERSON_AND_ORGANIZATION ( #72, #112 ) ;
#144 = APPROVAL_STATUS ( 'not_yet_approved' ) ;
#145 = EDGE_LOOP ( 'NONE', ( #17 ) ) ;
#146 = LOCAL_TIME ( 13, 59, 5.000000000000000000, #27 ) ;
#147 = CC_DESIGN_DATE_AND_TIME_ASSIGNMENT ( #40, #16, ( #119 ) ) ;
#148 = APPROVAL_ROLE ( '' ) ;
#149 = ORIENTED_EDGE ( 'NONE', *, *, #110, .T. ) ;
#150 = MANIFOLD_SOLID_BREP ( 'Corps-Déplacer/Copier1', #90 ) ;
#151 = FACE_BOUND ( 'NONE', #45, .T. ) ;
#152 = PLANE ( 'NONE',  #87 ) ;
#153 = DIRECTION ( 'NONE',  ( 1.425277148632319711E-30, 1.000000000000000000, 4.082155997157844681E-16 ) ) ;
#154 = MECHANICAL_CONTEXT ( 'NONE', #111, 'mechanical' ) ;
#155 = EDGE_CURVE ( 'NONE', #10, #10, #160, .T. ) ;
#156 = FACE_OUTER_BOUND ( 'NONE', #31, .T. ) ;
#157 = PERSON_AND_ORGANIZATION ( #72, #112 ) ;
#158 = DATE_AND_TIME ( #1, #146 ) ;
#159 = APPROVAL_DATE_TIME ( #169, #38 ) ;
#160 = CIRCLE ( 'NONE', #128, 11.00000000000000000 ) ;
#161 = DIRECTION ( 'NONE',  ( 1.400676323190717032E-30, 1.000000000000000000, 4.139681022217380387E-16 ) ) ;
#162 = PRODUCT_DEFINITION_SHAPE ( 'NONE', 'NONE',  #133 ) ;
#163 = DIRECTION ( 'NONE',  ( -3.491481338843133355E-15, 4.082155997157845174E-16, -1.000000000000000000 ) ) ;
#164 = EDGE_LOOP ( 'NONE', ( #3 ) ) ;
#165 = DIRECTION ( 'NONE',  ( -3.491481338843133355E-15, 4.082155997157845174E-16, -1.000000000000000000 ) ) ;
#166 = CARTESIAN_POINT ( 'NONE',  ( 4.189777606611670885E-15, -4.898587196589310277E-16, 1.199999999999974420 ) ) ;
#167 = DIRECTION ( 'NONE',  ( 1.425277148632319711E-30, 1.000000000000000000, 4.082155997157844681E-16 ) ) ;
#168 = DIRECTION ( 'NONE',  ( 1.425277148632319886E-30, 1.000000000000000000, 4.082155997157845174E-16 ) ) ;
#169 = DATE_AND_TIME ( #114, #74 ) ;
ENDSEC;
END-ISO-10303-21;
