ISO-10303-21;
HEADER;
FILE_DESCRIPTION (( 'STEP AP203' ),
    '1' );
FILE_NAME ('35136.step',
    '2021-12-06T12:59:04',
    ( '' ),
    ( '' ),
    'SwSTEP 2.0',
    'SolidWorks 2019',
    '' );
FILE_SCHEMA (( 'CONFIG_CONTROL_DESIGN' ));
ENDSEC;

DATA;
#1 = APPROVAL_STATUS ( 'not_yet_approved' ) ;
#2 = CIRCLE ( 'NONE', #3, 50.00000000000000000 ) ;
#3 = AXIS2_PLACEMENT_3D ( 'NONE', #164, #88, #8 ) ;
#4 = ORIENTED_EDGE ( 'NONE', *, *, #43, .F. ) ;
#5 = CC_DESIGN_PERSON_AND_ORGANIZATION_ASSIGNMENT ( #103, #28, ( #35 ) ) ;
#6 = FACE_OUTER_BOUND ( 'NONE', #59, .T. ) ;
#7 = MECHANICAL_CONTEXT ( 'NONE', #158, 'mechanical' ) ;
#8 = DIRECTION ( 'NONE',  ( 1.282749433769087232E-31, 1.000000000000000000, 3.673940397442058882E-17 ) ) ;
#9 =( NAMED_UNIT ( * ) SI_UNIT ( $, .STERADIAN. ) SOLID_ANGLE_UNIT ( ) );
#10 = CC_DESIGN_APPROVAL ( #110, ( #26 ) ) ;
#11 = EDGE_CURVE ( 'NONE', #64, #64, #144, .T. ) ;
#12 = SECURITY_CLASSIFICATION_LEVEL ( 'unclassified' ) ;
#13 = CARTESIAN_POINT ( 'NONE',  ( 1.745740669421566678E-14, 11.00000000000000000, 5.000000000000000000 ) ) ;
#14 = PERSON_AND_ORGANIZATION_ROLE ( 'creator' ) ;
#15 = ORGANIZATION ( 'UNSPECIFIED', 'UNSPECIFIED', '' ) ;
#16 = CLOSED_SHELL ( 'NONE', ( #75, #63, #118, #56 ) ) ;
#17 = LOCAL_TIME ( 13, 59, 4.000000000000000000, #114 ) ;
#18 = DESIGN_CONTEXT ( 'detailed design', #107, 'design' ) ;
#19 = ORIENTED_EDGE ( 'NONE', *, *, #168, .F. ) ;
#20 = VERTEX_POINT ( 'NONE', #123 ) ;
#21 = CYLINDRICAL_SURFACE ( 'NONE', #105, 11.00000000000000000 ) ;
#22 = DIRECTION ( 'NONE',  ( -1.282749433769087232E-31, -1.000000000000000000, -3.673940397442058882E-17 ) ) ;
#23 = ORIENTED_EDGE ( 'NONE', *, *, #11, .T. ) ;
#24 = PERSON_AND_ORGANIZATION ( #55, #15 ) ;
#25 = DIRECTION ( 'NONE',  ( -3.491481338843133355E-15, 3.673940397442058882E-17, -1.000000000000000000 ) ) ;
#26 = SECURITY_CLASSIFICATION ( '', '', #12 ) ;
#27 = PERSON_AND_ORGANIZATION_ROLE ( 'creator' ) ;
#28 = PERSON_AND_ORGANIZATION_ROLE ( 'design_supplier' ) ;
#29 = DATE_AND_TIME ( #69, #30 ) ;
#30 = LOCAL_TIME ( 13, 59, 4.000000000000000000, #115 ) ;
#31 = CC_DESIGN_PERSON_AND_ORGANIZATION_ASSIGNMENT ( #128, #111, ( #26 ) ) ;
#32 = ORIENTED_EDGE ( 'NONE', *, *, #168, .T. ) ;
#33 = CC_DESIGN_SECURITY_CLASSIFICATION ( #26, ( #35 ) ) ;
#34 = PLANE ( 'NONE',  #129 ) ;
#35 = PRODUCT_DEFINITION_FORMATION_WITH_SPECIFIED_SOURCE ( 'ANY', '', #44, .NOT_KNOWN. ) ;
#36 = DIRECTION ( 'NONE',  ( 1.232595164407830946E-31, 1.000000000000000000, 3.469446951953614189E-17 ) ) ;
#37 = DIRECTION ( 'NONE',  ( 1.000000000000000000, 0.0000000000000000000, 0.0000000000000000000 ) ) ;
#38 = PRODUCT_DEFINITION ( 'UNKNOWN', '', #35, #18 ) ;
#39 = COORDINATED_UNIVERSAL_TIME_OFFSET ( 1, 0, .AHEAD. ) ;
#40 = DIRECTION ( 'NONE',  ( 0.0000000000000000000, 1.000000000000000000, 0.0000000000000000000 ) ) ;
#41 = DATE_AND_TIME ( #90, #106 ) ;
#42 = CC_DESIGN_APPROVAL ( #142, ( #35 ) ) ;
#43 = EDGE_CURVE ( 'NONE', #20, #20, #161, .T. ) ;
#44 = PRODUCT ( '35136', '35136', '', ( #7 ) ) ;
#45 = CARTESIAN_POINT ( 'NONE',  ( -1.411024377145996042E-30, 1.484762184835238375E-32, -4.041334437186264524E-16 ) ) ;
#46 = AXIS2_PLACEMENT_3D ( 'NONE', #108, #137, #36 ) ;
#47 = EDGE_LOOP ( 'NONE', ( #4 ) ) ;
#48 = ADVANCED_BREP_SHAPE_REPRESENTATION ( '35136', ( #143, #95 ), #93 ) ;
#49 = DIRECTION ( 'NONE',  ( 1.282749433769087232E-31, 1.000000000000000000, 3.673940397442058882E-17 ) ) ;
#50 = DIRECTION ( 'NONE',  ( 3.491481338843133355E-15, -3.673940397442058882E-17, 1.000000000000000000 ) ) ;
#51 = LOCAL_TIME ( 13, 59, 4.000000000000000000, #102 ) ;
#52 = PERSON_AND_ORGANIZATION ( #55, #15 ) ;
#53 = APPLICATION_PROTOCOL_DEFINITION ( 'international standard', 'config_control_design', 1994, #107 ) ;
#54 = PLANE ( 'NONE',  #58 ) ;
#55 = PERSON ( 'UNSPECIFIED', 'UNSPECIFIED', 'UNSPECIFIED', ('UNSPECIFIED'), ('UNSPECIFIED'), ('UNSPECIFIED') ) ;
#56 = ADVANCED_FACE ( 'NONE', ( #6, #76 ), #21, .F. ) ;
#57 = EDGE_LOOP ( 'NONE', ( #19 ) ) ;
#58 = AXIS2_PLACEMENT_3D ( 'NONE', #13, #50, #22 ) ;
#59 = EDGE_LOOP ( 'NONE', ( #23 ) ) ;
#60 = CYLINDRICAL_SURFACE ( 'NONE', #152, 50.00000000000000000 ) ;
#61 = EDGE_LOOP ( 'NONE', ( #122 ) ) ;
#62 = DIRECTION ( 'NONE',  ( 0.0000000000000000000, 0.0000000000000000000, 1.000000000000000000 ) ) ;
#63 = ADVANCED_FACE ( 'NONE', ( #79, #124 ), #60, .T. ) ;
#64 = VERTEX_POINT ( 'NONE', #151 ) ;
#65 = APPLICATION_PROTOCOL_DEFINITION ( 'international standard', 'config_control_design', 1994, #158 ) ;
#66 = AXIS2_PLACEMENT_3D ( 'NONE', #112, #25, #40 ) ;
#67 = APPROVAL_DATE_TIME ( #29, #142 ) ;
#68 = APPROVAL_STATUS ( 'not_yet_approved' ) ;
#69 = CALENDAR_DATE ( 2021, 6, 12 ) ;
#70 = APPROVAL_ROLE ( '' ) ;
#71 = CC_DESIGN_PERSON_AND_ORGANIZATION_ASSIGNMENT ( #78, #153, ( #44 ) ) ;
#72 = PRODUCT_DEFINITION_SHAPE ( 'NONE', 'NONE',  #38 ) ;
#73 = EDGE_LOOP ( 'NONE', ( #130 ) ) ;
#74 = APPROVAL_PERSON_ORGANIZATION ( #141, #142, #70 ) ;
#75 = ADVANCED_FACE ( 'NONE', ( #160, #138 ), #34, .T. ) ;
#76 = FACE_OUTER_BOUND ( 'NONE', #135, .T. ) ;
#77 = CC_DESIGN_DATE_AND_TIME_ASSIGNMENT ( #155, #82, ( #26 ) ) ;
#78 = PERSON_AND_ORGANIZATION ( #55, #15 ) ;
#79 = FACE_OUTER_BOUND ( 'NONE', #61, .T. ) ;
#80 = DIRECTION ( 'NONE',  ( -3.491481338843133355E-15, 3.673940397442058882E-17, -1.000000000000000000 ) ) ;
#81 = DATE_AND_TIME ( #159, #17 ) ;
#82 = DATE_TIME_ROLE ( 'classification_date' ) ;
#83 = DATE_AND_TIME ( #104, #119 ) ;
#84 = CIRCLE ( 'NONE', #66, 11.00000000000000000 ) ;
#85 = PRODUCT_RELATED_PRODUCT_CATEGORY ( 'detail', '', ( #44 ) ) ;
#86 =( NAMED_UNIT ( * ) PLANE_ANGLE_UNIT ( ) SI_UNIT ( $, .RADIAN. ) );
#87 = APPROVAL_PERSON_ORGANIZATION ( #99, #121, #156 ) ;
#88 = DIRECTION ( 'NONE',  ( -3.491481338843133355E-15, 3.673940397442058882E-17, -1.000000000000000000 ) ) ;
#89 = CC_DESIGN_PERSON_AND_ORGANIZATION_ASSIGNMENT ( #91, #27, ( #35 ) ) ;
#90 = CALENDAR_DATE ( 2021, 6, 12 ) ;
#91 = PERSON_AND_ORGANIZATION ( #55, #15 ) ;
#92 = APPROVAL_DATE_TIME ( #81, #110 ) ;
#93 =( GEOMETRIC_REPRESENTATION_CONTEXT ( 3 ) GLOBAL_UNCERTAINTY_ASSIGNED_CONTEXT ( ( #146 ) ) GLOBAL_UNIT_ASSIGNED_CONTEXT ( ( #101, #86, #9 ) ) REPRESENTATION_CONTEXT ( 'NONE', 'WORKASPACE' ) );
#94 = CC_DESIGN_PERSON_AND_ORGANIZATION_ASSIGNMENT ( #52, #14, ( #38 ) ) ;
#95 = AXIS2_PLACEMENT_3D ( 'NONE', #98, #62, #37 ) ;
#96 = EDGE_LOOP ( 'NONE', ( #147 ) ) ;
#97 = FACE_BOUND ( 'NONE', #73, .T. ) ;
#98 = CARTESIAN_POINT ( 'NONE',  ( 0.0000000000000000000, 0.0000000000000000000, 0.0000000000000000000 ) ) ;
#99 = PERSON_AND_ORGANIZATION ( #55, #15 ) ;
#100 = APPROVAL_DATE_TIME ( #41, #121 ) ;
#101 =( LENGTH_UNIT ( ) NAMED_UNIT ( * ) SI_UNIT ( .MILLI., .METRE. ) );
#102 = COORDINATED_UNIVERSAL_TIME_OFFSET ( 1, 0, .AHEAD. ) ;
#103 = PERSON_AND_ORGANIZATION ( #55, #15 ) ;
#104 = CALENDAR_DATE ( 2021, 6, 12 ) ;
#105 = AXIS2_PLACEMENT_3D ( 'NONE', #109, #133, #163 ) ;
#106 = LOCAL_TIME ( 13, 59, 4.000000000000000000, #39 ) ;
#107 = APPLICATION_CONTEXT ( 'configuration controlled 3d designs of mechanical parts and assemblies' ) ;
#108 = CARTESIAN_POINT ( 'NONE',  ( 1.745740669421566047E-14, -1.836970198721028948E-16, 4.999999999999998224 ) ) ;
#109 = CARTESIAN_POINT ( 'NONE',  ( 0.0000000000000000000, 0.0000000000000000000, 0.0000000000000000000 ) ) ;
#110 = APPROVAL ( #1, 'UNSPECIFIED' ) ;
#111 = PERSON_AND_ORGANIZATION_ROLE ( 'classification_officer' ) ;
#112 = CARTESIAN_POINT ( 'NONE',  ( 1.745740669421566993E-14, -1.836970198721029934E-16, 5.000000000000000888 ) ) ;
#113 = CALENDAR_DATE ( 2021, 6, 12 ) ;
#114 = COORDINATED_UNIVERSAL_TIME_OFFSET ( 1, 0, .AHEAD. ) ;
#115 = COORDINATED_UNIVERSAL_TIME_OFFSET ( 1, 0, .AHEAD. ) ;
#116 = CC_DESIGN_DATE_AND_TIME_ASSIGNMENT ( #83, #126, ( #38 ) ) ;
#117 = APPROVAL_PERSON_ORGANIZATION ( #24, #110, #166 ) ;
#118 = ADVANCED_FACE ( 'NONE', ( #97, #140 ), #54, .T. ) ;
#119 = LOCAL_TIME ( 13, 59, 4.000000000000000000, #139 ) ;
#120 = CARTESIAN_POINT ( 'NONE',  ( 0.0000000000000000000, 0.0000000000000000000, 0.0000000000000000000 ) ) ;
#121 = APPROVAL ( #68, 'UNSPECIFIED' ) ;
#122 = ORIENTED_EDGE ( 'NONE', *, *, #43, .T. ) ;
#123 = CARTESIAN_POINT ( 'NONE',  ( 1.745740669421566678E-14, 50.00000000000000000, 5.000000000000000000 ) ) ;
#124 = FACE_OUTER_BOUND ( 'NONE', #57, .T. ) ;
#125 = CARTESIAN_POINT ( 'NONE',  ( -1.368455531567204171E-45, 50.00000000000000000, 0.0000000000000000000 ) ) ;
#126 = DATE_TIME_ROLE ( 'creation_date' ) ;
#127 = SHAPE_DEFINITION_REPRESENTATION ( #72, #48 ) ;
#128 = PERSON_AND_ORGANIZATION ( #55, #15 ) ;
#129 = AXIS2_PLACEMENT_3D ( 'NONE', #167, #80, #49 ) ;
#130 = ORIENTED_EDGE ( 'NONE', *, *, #148, .T. ) ;
#131 = CC_DESIGN_APPROVAL ( #121, ( #38 ) ) ;
#132 = DIRECTION ( 'NONE',  ( -3.491481338843133355E-15, 3.673940397442058882E-17, -1.000000000000000000 ) ) ;
#133 = DIRECTION ( 'NONE',  ( -3.491481338843133355E-15, 3.673940397442058882E-17, -1.000000000000000000 ) ) ;
#134 = CARTESIAN_POINT ( 'NONE',  ( 1.745740669421566993E-14, 11.00000000000000000, 5.000000000000000888 ) ) ;
#135 = EDGE_LOOP ( 'NONE', ( #154 ) ) ;
#136 = DIRECTION ( 'NONE',  ( 1.282749433769087232E-31, 1.000000000000000000, 3.673940397442058882E-17 ) ) ;
#137 = DIRECTION ( 'NONE',  ( -3.491481338843133355E-15, 3.673940397442058882E-17, -1.000000000000000000 ) ) ;
#138 = FACE_BOUND ( 'NONE', #96, .T. ) ;
#139 = COORDINATED_UNIVERSAL_TIME_OFFSET ( 1, 0, .AHEAD. ) ;
#140 = FACE_OUTER_BOUND ( 'NONE', #47, .T. ) ;
#141 = PERSON_AND_ORGANIZATION ( #55, #15 ) ;
#142 = APPROVAL ( #157, 'UNSPECIFIED' ) ;
#143 = MANIFOLD_SOLID_BREP ( 'Corps-Déplacer/Copier1', #16 ) ;
#144 = CIRCLE ( 'NONE', #169, 11.00000000000000000 ) ;
#145 = EDGE_LOOP ( 'NONE', ( #32 ) ) ;
#146 = UNCERTAINTY_MEASURE_WITH_UNIT (LENGTH_MEASURE( 1.000000000000000082E-05 ), #101, 'distance_accuracy_value', 'NONE');
#147 = ORIENTED_EDGE ( 'NONE', *, *, #11, .F. ) ;
#148 = EDGE_CURVE ( 'NONE', #165, #165, #84, .T. ) ;
#149 = DIRECTION ( 'NONE',  ( 1.282749433769087232E-31, 1.000000000000000000, 3.673940397442058882E-17 ) ) ;
#150 = VERTEX_POINT ( 'NONE', #125 ) ;
#151 = CARTESIAN_POINT ( 'NONE',  ( -1.710569414459005214E-46, 11.00000000000000000, 0.0000000000000000000 ) ) ;
#152 = AXIS2_PLACEMENT_3D ( 'NONE', #120, #162, #149 ) ;
#153 = PERSON_AND_ORGANIZATION_ROLE ( 'design_owner' ) ;
#154 = ORIENTED_EDGE ( 'NONE', *, *, #148, .F. ) ;
#155 = DATE_AND_TIME ( #113, #51 ) ;
#156 = APPROVAL_ROLE ( '' ) ;
#157 = APPROVAL_STATUS ( 'not_yet_approved' ) ;
#158 = APPLICATION_CONTEXT ( 'configuration controlled 3d designs of mechanical parts and assemblies' ) ;
#159 = CALENDAR_DATE ( 2021, 6, 12 ) ;
#160 = FACE_OUTER_BOUND ( 'NONE', #145, .T. ) ;
#161 = CIRCLE ( 'NONE', #46, 50.00000000000000000 ) ;
#162 = DIRECTION ( 'NONE',  ( -3.491481338843133355E-15, 3.673940397442058882E-17, -1.000000000000000000 ) ) ;
#163 = DIRECTION ( 'NONE',  ( 1.282749433769087232E-31, 1.000000000000000000, 3.673940397442058882E-17 ) ) ;
#164 = CARTESIAN_POINT ( 'NONE',  ( -6.413747168845438085E-30, 6.748919021978357046E-32, -1.836970198721029589E-15 ) ) ;
#165 = VERTEX_POINT ( 'NONE', #134 ) ;
#166 = APPROVAL_ROLE ( '' ) ;
#167 = CARTESIAN_POINT ( 'NONE',  ( -2.501361395849720321E-30, 11.00000000000000000, -7.164183775012014450E-16 ) ) ;
#168 = EDGE_CURVE ( 'NONE', #150, #150, #2, .T. ) ;
#169 = AXIS2_PLACEMENT_3D ( 'NONE', #45, #132, #136 ) ;
ENDSEC;
END-ISO-10303-21;
