ISO-10303-21;
HEADER;
FILE_DESCRIPTION (( 'STEP AP203' ),
    '1' );
FILE_NAME ('35122.step',
    '2021-12-06T12:59:03',
    ( '' ),
    ( '' ),
    'SwSTEP 2.0',
    'SolidWorks 2019',
    '' );
FILE_SCHEMA (( 'CONFIG_CONTROL_DESIGN' ));
ENDSEC;

DATA;
#1 = CARTESIAN_POINT ( 'NONE',  ( 1.745740669421566047E-14, -1.836970198721028948E-16, 4.999999999999998224 ) ) ;
#2 = CYLINDRICAL_SURFACE ( 'NONE', #160, 11.00000000000000000 ) ;
#3 = CARTESIAN_POINT ( 'NONE',  ( 1.745740669421566993E-14, -1.836970198721029934E-16, 5.000000000000000888 ) ) ;
#4 = VERTEX_POINT ( 'NONE', #163 ) ;
#5 = DESIGN_CONTEXT ( 'detailed design', #33, 'design' ) ;
#6 = CARTESIAN_POINT ( 'NONE',  ( 0.0000000000000000000, 0.0000000000000000000, 0.0000000000000000000 ) ) ;
#7 =( GEOMETRIC_REPRESENTATION_CONTEXT ( 3 ) GLOBAL_UNCERTAINTY_ASSIGNED_CONTEXT ( ( #62 ) ) GLOBAL_UNIT_ASSIGNED_CONTEXT ( ( #109, #63, #120 ) ) REPRESENTATION_CONTEXT ( 'NONE', 'WORKASPACE' ) );
#8 = FACE_OUTER_BOUND ( 'NONE', #73, .T. ) ;
#9 = APPROVAL_ROLE ( '' ) ;
#10 = DIRECTION ( 'NONE',  ( -3.491481338843133355E-15, 3.673940397442058882E-17, -1.000000000000000000 ) ) ;
#11 = EDGE_LOOP ( 'NONE', ( #126 ) ) ;
#12 = ORIENTED_EDGE ( 'NONE', *, *, #113, .F. ) ;
#13 = CARTESIAN_POINT ( 'NONE',  ( -1.859986678965176792E-30, 11.00000000000000000, -5.327213576290986242E-16 ) ) ;
#14 = MECHANICAL_CONTEXT ( 'NONE', #24, 'mechanical' ) ;
#15 = PERSON_AND_ORGANIZATION_ROLE ( 'design_owner' ) ;
#16 = CARTESIAN_POINT ( 'NONE',  ( -1.411024377145996042E-30, 1.484762184835238375E-32, -4.041334437186264524E-16 ) ) ;
#17 = CARTESIAN_POINT ( 'NONE',  ( 1.745740669421566993E-14, 11.00000000000000000, 5.000000000000000888 ) ) ;
#18 = EDGE_CURVE ( 'NONE', #78, #78, #136, .T. ) ;
#19 = CC_DESIGN_APPROVAL ( #45, ( #67 ) ) ;
#20 = DATE_AND_TIME ( #138, #144 ) ;
#21 = PERSON_AND_ORGANIZATION ( #79, #92 ) ;
#22 = FACE_BOUND ( 'NONE', #60, .T. ) ;
#23 = APPROVAL ( #112, 'UNSPECIFIED' ) ;
#24 = APPLICATION_CONTEXT ( 'configuration controlled 3d designs of mechanical parts and assemblies' ) ;
#25 = AXIS2_PLACEMENT_3D ( 'NONE', #168, #48, #105 ) ;
#26 = FACE_OUTER_BOUND ( 'NONE', #11, .T. ) ;
#27 = ADVANCED_FACE ( 'NONE', ( #141, #75 ), #61, .T. ) ;
#28 = PERSON_AND_ORGANIZATION ( #79, #92 ) ;
#29 = APPROVAL_DATE_TIME ( #83, #142 ) ;
#30 = PERSON_AND_ORGANIZATION ( #79, #92 ) ;
#31 = AXIS2_PLACEMENT_3D ( 'NONE', #107, #159, #36 ) ;
#32 = PERSON_AND_ORGANIZATION_ROLE ( 'classification_officer' ) ;
#33 = APPLICATION_CONTEXT ( 'configuration controlled 3d designs of mechanical parts and assemblies' ) ;
#34 = CALENDAR_DATE ( 2021, 6, 12 ) ;
#35 = ORIENTED_EDGE ( 'NONE', *, *, #103, .F. ) ;
#36 = DIRECTION ( 'NONE',  ( -1.282749433769087232E-31, -1.000000000000000000, -3.673940397442058882E-17 ) ) ;
#37 = CC_DESIGN_APPROVAL ( #142, ( #162 ) ) ;
#38 = CIRCLE ( 'NONE', #150, 11.00000000000000000 ) ;
#39 = DIRECTION ( 'NONE',  ( 1.282749433769087232E-31, 1.000000000000000000, 3.673940397442058882E-17 ) ) ;
#40 = EDGE_CURVE ( 'NONE', #94, #94, #121, .T. ) ;
#41 = PLANE ( 'NONE',  #53 ) ;
#42 = CALENDAR_DATE ( 2021, 6, 12 ) ;
#43 = DATE_AND_TIME ( #55, #140 ) ;
#44 = CALENDAR_DATE ( 2021, 6, 12 ) ;
#45 = APPROVAL ( #66, 'UNSPECIFIED' ) ;
#46 = PERSON_AND_ORGANIZATION ( #79, #92 ) ;
#47 = ADVANCED_FACE ( 'NONE', ( #22, #72 ), #51, .T. ) ;
#48 = DIRECTION ( 'NONE',  ( -3.491481338843133355E-15, 3.673940397442058882E-17, -1.000000000000000000 ) ) ;
#49 = LOCAL_TIME ( 13, 59, 3.000000000000000000, #110 ) ;
#50 = EDGE_LOOP ( 'NONE', ( #106 ) ) ;
#51 = PLANE ( 'NONE',  #31 ) ;
#52 = DIRECTION ( 'NONE',  ( 0.0000000000000000000, 0.0000000000000000000, 1.000000000000000000 ) ) ;
#53 = AXIS2_PLACEMENT_3D ( 'NONE', #13, #108, #119 ) ;
#54 = DIRECTION ( 'NONE',  ( 1.000000000000000000, 0.0000000000000000000, 0.0000000000000000000 ) ) ;
#55 = CALENDAR_DATE ( 2021, 6, 12 ) ;
#56 = ADVANCED_FACE ( 'NONE', ( #26, #116 ), #2, .F. ) ;
#57 = SECURITY_CLASSIFICATION_LEVEL ( 'unclassified' ) ;
#58 = ORIENTED_EDGE ( 'NONE', *, *, #18, .F. ) ;
#59 = DIRECTION ( 'NONE',  ( 1.540743955509788682E-31, 1.000000000000000000, 4.336808689942017736E-17 ) ) ;
#60 = EDGE_LOOP ( 'NONE', ( #158 ) ) ;
#61 = CYLINDRICAL_SURFACE ( 'NONE', #25, 40.00000000000000000 ) ;
#62 = UNCERTAINTY_MEASURE_WITH_UNIT (LENGTH_MEASURE( 1.000000000000000082E-05 ), #109, 'distance_accuracy_value', 'NONE');
#63 =( NAMED_UNIT ( * ) PLANE_ANGLE_UNIT ( ) SI_UNIT ( $, .RADIAN. ) );
#64 = PRODUCT_DEFINITION_FORMATION_WITH_SPECIFIED_SOURCE ( 'ANY', '', #123, .NOT_KNOWN. ) ;
#65 = VERTEX_POINT ( 'NONE', #149 ) ;
#66 = APPROVAL_STATUS ( 'not_yet_approved' ) ;
#67 = SECURITY_CLASSIFICATION ( '', '', #57 ) ;
#68 = PERSON_AND_ORGANIZATION_ROLE ( 'creator' ) ;
#69 = APPROVAL_DATE_TIME ( #71, #45 ) ;
#70 = CIRCLE ( 'NONE', #124, 40.00000000000000000 ) ;
#71 = DATE_AND_TIME ( #34, #131 ) ;
#72 = FACE_OUTER_BOUND ( 'NONE', #50, .T. ) ;
#73 = EDGE_LOOP ( 'NONE', ( #125 ) ) ;
#74 = CC_DESIGN_PERSON_AND_ORGANIZATION_ASSIGNMENT ( #97, #15, ( #123 ) ) ;
#75 = FACE_OUTER_BOUND ( 'NONE', #139, .T. ) ;
#76 = APPROVAL_PERSON_ORGANIZATION ( #30, #23, #152 ) ;
#77 = DIRECTION ( 'NONE',  ( 1.282749433769087451E-31, 1.000000000000000000, 3.673940397442059498E-17 ) ) ;
#78 = VERTEX_POINT ( 'NONE', #17 ) ;
#79 = PERSON ( 'UNSPECIFIED', 'UNSPECIFIED', 'UNSPECIFIED', ('UNSPECIFIED'), ('UNSPECIFIED'), ('UNSPECIFIED') ) ;
#80 = APPROVAL_STATUS ( 'not_yet_approved' ) ;
#81 = LOCAL_TIME ( 13, 59, 3.000000000000000000, #100 ) ;
#82 = PERSON_AND_ORGANIZATION ( #79, #92 ) ;
#83 = DATE_AND_TIME ( #42, #49 ) ;
#84 = DATE_TIME_ROLE ( 'classification_date' ) ;
#85 = PERSON_AND_ORGANIZATION ( #79, #92 ) ;
#86 = APPROVAL_ROLE ( '' ) ;
#87 = SHAPE_DEFINITION_REPRESENTATION ( #88, #90 ) ;
#88 = PRODUCT_DEFINITION_SHAPE ( 'NONE', 'NONE',  #162 ) ;
#89 = EDGE_LOOP ( 'NONE', ( #117 ) ) ;
#90 = ADVANCED_BREP_SHAPE_REPRESENTATION ( '35122', ( #147, #165 ), #7 ) ;
#91 = FACE_BOUND ( 'NONE', #115, .T. ) ;
#92 = ORGANIZATION ( 'UNSPECIFIED', 'UNSPECIFIED', '' ) ;
#93 = CARTESIAN_POINT ( 'NONE',  ( 0.0000000000000000000, 0.0000000000000000000, 0.0000000000000000000 ) ) ;
#94 = VERTEX_POINT ( 'NONE', #146 ) ;
#95 = DIRECTION ( 'NONE',  ( 1.282749433769087232E-31, 1.000000000000000000, 3.673940397442058882E-17 ) ) ;
#96 = CLOSED_SHELL ( 'NONE', ( #145, #27, #47, #56 ) ) ;
#97 = PERSON_AND_ORGANIZATION ( #79, #92 ) ;
#98 = APPROVAL_DATE_TIME ( #20, #23 ) ;
#99 = CC_DESIGN_DATE_AND_TIME_ASSIGNMENT ( #135, #84, ( #67 ) ) ;
#100 = COORDINATED_UNIVERSAL_TIME_OFFSET ( 1, 0, .AHEAD. ) ;
#101 = APPROVAL_PERSON_ORGANIZATION ( #28, #142, #9 ) ;
#102 = PERSON_AND_ORGANIZATION_ROLE ( 'design_supplier' ) ;
#103 = EDGE_CURVE ( 'NONE', #4, #4, #38, .T. ) ;
#104 = AXIS2_PLACEMENT_3D ( 'NONE', #3, #127, #143 ) ;
#105 = DIRECTION ( 'NONE',  ( 1.282749433769087451E-31, 1.000000000000000000, 3.673940397442059498E-17 ) ) ;
#106 = ORIENTED_EDGE ( 'NONE', *, *, #40, .F. ) ;
#107 = CARTESIAN_POINT ( 'NONE',  ( 1.745740669421566678E-14, 11.00000000000000000, 5.000000000000000000 ) ) ;
#108 = DIRECTION ( 'NONE',  ( -3.491481338843133355E-15, 3.673940397442058882E-17, -1.000000000000000000 ) ) ;
#109 =( LENGTH_UNIT ( ) NAMED_UNIT ( * ) SI_UNIT ( .MILLI., .METRE. ) );
#110 = COORDINATED_UNIVERSAL_TIME_OFFSET ( 1, 0, .AHEAD. ) ;
#111 = CARTESIAN_POINT ( 'NONE',  ( -5.130997735076350328E-30, 5.399135217582685199E-32, -1.469576158976823750E-15 ) ) ;
#112 = APPROVAL_STATUS ( 'not_yet_approved' ) ;
#113 = EDGE_CURVE ( 'NONE', #65, #65, #70, .T. ) ;
#114 = CC_DESIGN_SECURITY_CLASSIFICATION ( #67, ( #64 ) ) ;
#115 = EDGE_LOOP ( 'NONE', ( #35 ) ) ;
#116 = FACE_OUTER_BOUND ( 'NONE', #129, .T. ) ;
#117 = ORIENTED_EDGE ( 'NONE', *, *, #40, .T. ) ;
#118 = APPLICATION_PROTOCOL_DEFINITION ( 'international standard', 'config_control_design', 1994, #24 ) ;
#119 = DIRECTION ( 'NONE',  ( 1.282749433769087232E-31, 1.000000000000000000, 3.673940397442058882E-17 ) ) ;
#120 =( NAMED_UNIT ( * ) SI_UNIT ( $, .STERADIAN. ) SOLID_ANGLE_UNIT ( ) );
#121 = CIRCLE ( 'NONE', #155, 40.00000000000000000 ) ;
#122 = CC_DESIGN_PERSON_AND_ORGANIZATION_ASSIGNMENT ( #82, #133, ( #162 ) ) ;
#123 = PRODUCT ( '35122', '35122', '', ( #14 ) ) ;
#124 = AXIS2_PLACEMENT_3D ( 'NONE', #111, #164, #77 ) ;
#125 = ORIENTED_EDGE ( 'NONE', *, *, #113, .T. ) ;
#126 = ORIENTED_EDGE ( 'NONE', *, *, #103, .T. ) ;
#127 = DIRECTION ( 'NONE',  ( -3.491481338843133355E-15, 3.673940397442058882E-17, -1.000000000000000000 ) ) ;
#128 = CC_DESIGN_APPROVAL ( #23, ( #64 ) ) ;
#129 = EDGE_LOOP ( 'NONE', ( #58 ) ) ;
#130 = CC_DESIGN_DATE_AND_TIME_ASSIGNMENT ( #43, #151, ( #162 ) ) ;
#131 = LOCAL_TIME ( 13, 59, 3.000000000000000000, #137 ) ;
#132 = COORDINATED_UNIVERSAL_TIME_OFFSET ( 1, 0, .AHEAD. ) ;
#133 = PERSON_AND_ORGANIZATION_ROLE ( 'creator' ) ;
#134 = CC_DESIGN_PERSON_AND_ORGANIZATION_ASSIGNMENT ( #85, #32, ( #67 ) ) ;
#135 = DATE_AND_TIME ( #44, #81 ) ;
#136 = CIRCLE ( 'NONE', #104, 11.00000000000000000 ) ;
#137 = COORDINATED_UNIVERSAL_TIME_OFFSET ( 1, 0, .AHEAD. ) ;
#138 = CALENDAR_DATE ( 2021, 6, 12 ) ;
#139 = EDGE_LOOP ( 'NONE', ( #12 ) ) ;
#140 = LOCAL_TIME ( 13, 59, 3.000000000000000000, #132 ) ;
#141 = FACE_OUTER_BOUND ( 'NONE', #89, .T. ) ;
#142 = APPROVAL ( #80, 'UNSPECIFIED' ) ;
#143 = DIRECTION ( 'NONE',  ( 0.0000000000000000000, 1.000000000000000000, 0.0000000000000000000 ) ) ;
#144 = LOCAL_TIME ( 13, 59, 3.000000000000000000, #154 ) ;
#145 = ADVANCED_FACE ( 'NONE', ( #8, #91 ), #41, .T. ) ;
#146 = CARTESIAN_POINT ( 'NONE',  ( 1.745740669421566678E-14, 40.00000000000000000, 5.000000000000000000 ) ) ;
#147 = MANIFOLD_SOLID_BREP ( 'Corps-Déplacer/Copier1', #96 ) ;
#148 = APPLICATION_PROTOCOL_DEFINITION ( 'international standard', 'config_control_design', 1994, #33 ) ;
#149 = CARTESIAN_POINT ( 'NONE',  ( -6.842277657836020854E-46, 40.00000000000000000, 0.0000000000000000000 ) ) ;
#150 = AXIS2_PLACEMENT_3D ( 'NONE', #16, #161, #95 ) ;
#151 = DATE_TIME_ROLE ( 'creation_date' ) ;
#152 = APPROVAL_ROLE ( '' ) ;
#153 = PRODUCT_RELATED_PRODUCT_CATEGORY ( 'detail', '', ( #123 ) ) ;
#154 = COORDINATED_UNIVERSAL_TIME_OFFSET ( 1, 0, .AHEAD. ) ;
#155 = AXIS2_PLACEMENT_3D ( 'NONE', #1, #157, #59 ) ;
#156 = CC_DESIGN_PERSON_AND_ORGANIZATION_ASSIGNMENT ( #166, #102, ( #64 ) ) ;
#157 = DIRECTION ( 'NONE',  ( -3.491481338843133355E-15, 3.673940397442058882E-17, -1.000000000000000000 ) ) ;
#158 = ORIENTED_EDGE ( 'NONE', *, *, #18, .T. ) ;
#159 = DIRECTION ( 'NONE',  ( 3.491481338843133355E-15, -3.673940397442058882E-17, 1.000000000000000000 ) ) ;
#160 = AXIS2_PLACEMENT_3D ( 'NONE', #93, #10, #39 ) ;
#161 = DIRECTION ( 'NONE',  ( -3.491481338843133355E-15, 3.673940397442058882E-17, -1.000000000000000000 ) ) ;
#162 = PRODUCT_DEFINITION ( 'UNKNOWN', '', #64, #5 ) ;
#163 = CARTESIAN_POINT ( 'NONE',  ( -1.710569414459005214E-46, 11.00000000000000000, 0.0000000000000000000 ) ) ;
#164 = DIRECTION ( 'NONE',  ( -3.491481338843133355E-15, 3.673940397442058882E-17, -1.000000000000000000 ) ) ;
#165 = AXIS2_PLACEMENT_3D ( 'NONE', #6, #52, #54 ) ;
#166 = PERSON_AND_ORGANIZATION ( #79, #92 ) ;
#167 = CC_DESIGN_PERSON_AND_ORGANIZATION_ASSIGNMENT ( #46, #68, ( #64 ) ) ;
#168 = CARTESIAN_POINT ( 'NONE',  ( 0.0000000000000000000, 0.0000000000000000000, 0.0000000000000000000 ) ) ;
#169 = APPROVAL_PERSON_ORGANIZATION ( #21, #45, #86 ) ;
ENDSEC;
END-ISO-10303-21;
