ISO-10303-21;
HEADER;
FILE_DESCRIPTION (( 'STEP AP203' ),
    '1' );
FILE_NAME ('35109.step',
    '2021-12-06T12:59:03',
    ( '' ),
    ( '' ),
    'SwSTEP 2.0',
    'SolidWorks 2019',
    '' );
FILE_SCHEMA (( 'CONFIG_CONTROL_DESIGN' ));
ENDSEC;

DATA;
#1 = ADVANCED_FACE ( 'NONE', ( #163, #19 ), #149, .T. ) ;
#2 = APPLICATION_CONTEXT ( 'configuration controlled 3d designs of mechanical parts and assemblies' ) ;
#3 = PLANE ( 'NONE',  #115 ) ;
#4 = ORIENTED_EDGE ( 'NONE', *, *, #78, .T. ) ;
#5 = DESIGN_CONTEXT ( 'detailed design', #146, 'design' ) ;
#6 = DIRECTION ( 'NONE',  ( -3.491481338843133355E-15, 3.673940397442058882E-17, -1.000000000000000000 ) ) ;
#7 = VERTEX_POINT ( 'NONE', #9 ) ;
#8 = PRODUCT_DEFINITION_FORMATION_WITH_SPECIFIED_SOURCE ( 'ANY', '', #80, .NOT_KNOWN. ) ;
#9 = CARTESIAN_POINT ( 'NONE',  ( -6.842277657836020854E-46, 25.00000000000000000, 0.0000000000000000000 ) ) ;
#10 = MECHANICAL_CONTEXT ( 'NONE', #2, 'mechanical' ) ;
#11 = AXIS2_PLACEMENT_3D ( 'NONE', #20, #33, #141 ) ;
#12 = APPLICATION_PROTOCOL_DEFINITION ( 'international standard', 'config_control_design', 1994, #146 ) ;
#13 = CARTESIAN_POINT ( 'NONE',  ( 1.745740669421566678E-14, 25.00000000000000000, 5.000000000000000000 ) ) ;
#14 = AXIS2_PLACEMENT_3D ( 'NONE', #30, #74, #162 ) ;
#15 = COORDINATED_UNIVERSAL_TIME_OFFSET ( 1, 0, .AHEAD. ) ;
#16 = EDGE_LOOP ( 'NONE', ( #48 ) ) ;
#17 = FACE_OUTER_BOUND ( 'NONE', #159, .T. ) ;
#18 = EDGE_LOOP ( 'NONE', ( #4 ) ) ;
#19 = FACE_OUTER_BOUND ( 'NONE', #152, .T. ) ;
#20 = CARTESIAN_POINT ( 'NONE',  ( 1.745740669421566362E-14, -1.836970198721029194E-16, 4.999999999999999112 ) ) ;
#21 = CARTESIAN_POINT ( 'NONE',  ( 0.0000000000000000000, 0.0000000000000000000, 0.0000000000000000000 ) ) ;
#22 = DIRECTION ( 'NONE',  ( -3.491481338843133355E-15, 3.673940397442058882E-17, -1.000000000000000000 ) ) ;
#23 = PERSON_AND_ORGANIZATION ( #105, #46 ) ;
#24 = PERSON_AND_ORGANIZATION_ROLE ( 'creator' ) ;
#25 = CALENDAR_DATE ( 2021, 6, 12 ) ;
#26 = CIRCLE ( 'NONE', #11, 25.00000000000000000 ) ;
#27 = APPROVAL ( #88, 'UNSPECIFIED' ) ;
#28 = VERTEX_POINT ( 'NONE', #13 ) ;
#29 = DATE_AND_TIME ( #25, #97 ) ;
#30 = CARTESIAN_POINT ( 'NONE',  ( -8.337871319499066568E-31, 8.773594728571862627E-33, -2.388061258337338150E-16 ) ) ;
#31 = ORIENTED_EDGE ( 'NONE', *, *, #57, .F. ) ;
#32 = DATE_AND_TIME ( #82, #43 ) ;
#33 = DIRECTION ( 'NONE',  ( -3.491481338843133355E-15, 3.673940397442058882E-17, -1.000000000000000000 ) ) ;
#34 = CARTESIAN_POINT ( 'NONE',  ( 1.745740669421566678E-14, -1.836970198721029688E-16, 5.000000000000000000 ) ) ;
#35 = FACE_OUTER_BOUND ( 'NONE', #131, .T. ) ;
#36 =( LENGTH_UNIT ( ) NAMED_UNIT ( * ) SI_UNIT ( .MILLI., .METRE. ) );
#37 = CIRCLE ( 'NONE', #90, 25.00000000000000000 ) ;
#38 = PERSON_AND_ORGANIZATION ( #105, #46 ) ;
#39 = PRODUCT_DEFINITION_SHAPE ( 'NONE', 'NONE',  #52 ) ;
#40 = DATE_TIME_ROLE ( 'classification_date' ) ;
#41 = PERSON_AND_ORGANIZATION ( #105, #46 ) ;
#42 =( NAMED_UNIT ( * ) PLANE_ANGLE_UNIT ( ) SI_UNIT ( $, .RADIAN. ) );
#43 = LOCAL_TIME ( 13, 59, 3.000000000000000000, #15 ) ;
#44 = CARTESIAN_POINT ( 'NONE',  ( -3.206873584422719042E-30, 3.374459510989178523E-32, -9.184850993605147944E-16 ) ) ;
#45 = AXIS2_PLACEMENT_3D ( 'NONE', #122, #75, #154 ) ;
#46 = ORGANIZATION ( 'UNSPECIFIED', 'UNSPECIFIED', '' ) ;
#47 = DIRECTION ( 'NONE',  ( -1.282749433769087232E-31, -1.000000000000000000, -3.673940397442058882E-17 ) ) ;
#48 = ORIENTED_EDGE ( 'NONE', *, *, #110, .T. ) ;
#49 = CC_DESIGN_PERSON_AND_ORGANIZATION_ASSIGNMENT ( #79, #66, ( #8 ) ) ;
#50 =( GEOMETRIC_REPRESENTATION_CONTEXT ( 3 ) GLOBAL_UNCERTAINTY_ASSIGNED_CONTEXT ( ( #72 ) ) GLOBAL_UNIT_ASSIGNED_CONTEXT ( ( #36, #42, #127 ) ) REPRESENTATION_CONTEXT ( 'NONE', 'WORKASPACE' ) );
#51 = LOCAL_TIME ( 13, 59, 3.000000000000000000, #169 ) ;
#52 = PRODUCT_DEFINITION ( 'UNKNOWN', '', #8, #5 ) ;
#53 = DIRECTION ( 'NONE',  ( 0.0000000000000000000, 0.0000000000000000000, 1.000000000000000000 ) ) ;
#54 = COORDINATED_UNIVERSAL_TIME_OFFSET ( 1, 0, .AHEAD. ) ;
#55 = APPROVAL_ROLE ( '' ) ;
#56 = DIRECTION ( 'NONE',  ( 3.491481338843133355E-15, -3.673940397442058882E-17, 1.000000000000000000 ) ) ;
#57 = EDGE_CURVE ( 'NONE', #124, #124, #126, .T. ) ;
#58 = CLOSED_SHELL ( 'NONE', ( #86, #94, #1, #150 ) ) ;
#59 = CC_DESIGN_APPROVAL ( #65, ( #52 ) ) ;
#60 = CC_DESIGN_DATE_AND_TIME_ASSIGNMENT ( #103, #40, ( #91 ) ) ;
#61 = APPROVAL_PERSON_ORGANIZATION ( #38, #121, #55 ) ;
#62 = ORIENTED_EDGE ( 'NONE', *, *, #78, .F. ) ;
#63 = CARTESIAN_POINT ( 'NONE',  ( 0.0000000000000000000, 6.500000000000000000, 0.0000000000000000000 ) ) ;
#64 = APPROVAL_STATUS ( 'not_yet_approved' ) ;
#65 = APPROVAL ( #64, 'UNSPECIFIED' ) ;
#66 = PERSON_AND_ORGANIZATION_ROLE ( 'design_supplier' ) ;
#67 = DATE_TIME_ROLE ( 'creation_date' ) ;
#68 = PERSON_AND_ORGANIZATION ( #105, #46 ) ;
#69 = ORIENTED_EDGE ( 'NONE', *, *, #106, .F. ) ;
#70 = CC_DESIGN_SECURITY_CLASSIFICATION ( #91, ( #8 ) ) ;
#71 = CYLINDRICAL_SURFACE ( 'NONE', #45, 25.00000000000000000 ) ;
#72 = UNCERTAINTY_MEASURE_WITH_UNIT (LENGTH_MEASURE( 1.000000000000000082E-05 ), #36, 'distance_accuracy_value', 'NONE');
#73 = ORIENTED_EDGE ( 'NONE', *, *, #57, .T. ) ;
#74 = DIRECTION ( 'NONE',  ( -3.491481338843133355E-15, 3.673940397442058882E-17, -1.000000000000000000 ) ) ;
#75 = DIRECTION ( 'NONE',  ( -3.491481338843133355E-15, 3.673940397442058882E-17, -1.000000000000000000 ) ) ;
#76 = DIRECTION ( 'NONE',  ( 1.282749433769087013E-31, 1.000000000000000000, 3.673940397442059498E-17 ) ) ;
#77 = CC_DESIGN_APPROVAL ( #121, ( #8 ) ) ;
#78 = EDGE_CURVE ( 'NONE', #7, #7, #37, .T. ) ;
#79 = PERSON_AND_ORGANIZATION ( #105, #46 ) ;
#80 = PRODUCT ( '35109', '35109', '', ( #10 ) ) ;
#81 = APPROVAL_STATUS ( 'not_yet_approved' ) ;
#82 = CALENDAR_DATE ( 2021, 6, 12 ) ;
#83 = LOCAL_TIME ( 13, 59, 3.000000000000000000, #113 ) ;
#84 = DIRECTION ( 'NONE',  ( -3.491481338843133355E-15, 3.673940397442058882E-17, -1.000000000000000000 ) ) ;
#85 = ADVANCED_BREP_SHAPE_REPRESENTATION ( '35109', ( #145, #129 ), #50 ) ;
#86 = ADVANCED_FACE ( 'NONE', ( #123, #120 ), #3, .T. ) ;
#87 = COORDINATED_UNIVERSAL_TIME_OFFSET ( 1, 0, .AHEAD. ) ;
#88 = APPROVAL_STATUS ( 'not_yet_approved' ) ;
#89 = PERSON_AND_ORGANIZATION_ROLE ( 'creator' ) ;
#90 = AXIS2_PLACEMENT_3D ( 'NONE', #44, #6, #93 ) ;
#91 = SECURITY_CLASSIFICATION ( '', '', #114 ) ;
#92 = DIRECTION ( 'NONE',  ( 1.000000000000000000, 0.0000000000000000000, 0.0000000000000000000 ) ) ;
#93 = DIRECTION ( 'NONE',  ( 1.282749433769087232E-31, 1.000000000000000000, 3.673940397442058882E-17 ) ) ;
#94 = ADVANCED_FACE ( 'NONE', ( #136, #17 ), #71, .T. ) ;
#95 = CARTESIAN_POINT ( 'NONE',  ( -1.186543226236406018E-30, 6.500000000000000000, -3.398394867633904897E-16 ) ) ;
#96 = EDGE_LOOP ( 'NONE', ( #137 ) ) ;
#97 = LOCAL_TIME ( 13, 59, 3.000000000000000000, #87 ) ;
#98 = CC_DESIGN_PERSON_AND_ORGANIZATION_ASSIGNMENT ( #23, #89, ( #52 ) ) ;
#99 = CARTESIAN_POINT ( 'NONE',  ( 1.745740669421566678E-14, 6.499999999999999112, 5.000000000000000000 ) ) ;
#100 = AXIS2_PLACEMENT_3D ( 'NONE', #21, #22, #76 ) ;
#101 = CC_DESIGN_PERSON_AND_ORGANIZATION_ASSIGNMENT ( #68, #116, ( #80 ) ) ;
#102 = DATE_AND_TIME ( #155, #135 ) ;
#103 = DATE_AND_TIME ( #168, #51 ) ;
#104 = PERSON_AND_ORGANIZATION ( #105, #46 ) ;
#105 = PERSON ( 'UNSPECIFIED', 'UNSPECIFIED', 'UNSPECIFIED', ('UNSPECIFIED'), ('UNSPECIFIED'), ('UNSPECIFIED') ) ;
#106 = EDGE_CURVE ( 'NONE', #164, #164, #108, .T. ) ;
#107 = PERSON_AND_ORGANIZATION ( #105, #46 ) ;
#108 = CIRCLE ( 'NONE', #139, 6.499999999999999112 ) ;
#109 = APPROVAL_PERSON_ORGANIZATION ( #107, #27, #158 ) ;
#110 = EDGE_CURVE ( 'NONE', #28, #28, #26, .T. ) ;
#111 = EDGE_LOOP ( 'NONE', ( #73 ) ) ;
#112 = EDGE_LOOP ( 'NONE', ( #31 ) ) ;
#113 = COORDINATED_UNIVERSAL_TIME_OFFSET ( 1, 0, .AHEAD. ) ;
#114 = SECURITY_CLASSIFICATION_LEVEL ( 'unclassified' ) ;
#115 = AXIS2_PLACEMENT_3D ( 'NONE', #95, #151, #134 ) ;
#116 = PERSON_AND_ORGANIZATION_ROLE ( 'design_owner' ) ;
#117 = CC_DESIGN_PERSON_AND_ORGANIZATION_ASSIGNMENT ( #104, #24, ( #8 ) ) ;
#118 = PERSON_AND_ORGANIZATION ( #105, #46 ) ;
#119 = CARTESIAN_POINT ( 'NONE',  ( 1.745740669421566678E-14, 6.499999999999999112, 5.000000000000000000 ) ) ;
#120 = FACE_BOUND ( 'NONE', #112, .T. ) ;
#121 = APPROVAL ( #81, 'UNSPECIFIED' ) ;
#122 = CARTESIAN_POINT ( 'NONE',  ( 0.0000000000000000000, 0.0000000000000000000, 0.0000000000000000000 ) ) ;
#123 = FACE_OUTER_BOUND ( 'NONE', #18, .T. ) ;
#124 = VERTEX_POINT ( 'NONE', #63 ) ;
#125 = FACE_OUTER_BOUND ( 'NONE', #111, .T. ) ;
#126 = CIRCLE ( 'NONE', #14, 6.500000000000000000 ) ;
#127 =( NAMED_UNIT ( * ) SI_UNIT ( $, .STERADIAN. ) SOLID_ANGLE_UNIT ( ) );
#128 = CC_DESIGN_PERSON_AND_ORGANIZATION_ASSIGNMENT ( #41, #147, ( #91 ) ) ;
#129 = AXIS2_PLACEMENT_3D ( 'NONE', #130, #53, #92 ) ;
#130 = CARTESIAN_POINT ( 'NONE',  ( 0.0000000000000000000, 0.0000000000000000000, 0.0000000000000000000 ) ) ;
#131 = EDGE_LOOP ( 'NONE', ( #69 ) ) ;
#132 = APPROVAL_DATE_TIME ( #32, #27 ) ;
#133 = SHAPE_DEFINITION_REPRESENTATION ( #39, #85 ) ;
#134 = DIRECTION ( 'NONE',  ( 1.282749433769087232E-31, 1.000000000000000000, 3.673940397442058882E-17 ) ) ;
#135 = LOCAL_TIME ( 13, 59, 3.000000000000000000, #54 ) ;
#136 = FACE_OUTER_BOUND ( 'NONE', #16, .T. ) ;
#137 = ORIENTED_EDGE ( 'NONE', *, *, #106, .T. ) ;
#138 = DIRECTION ( 'NONE',  ( 0.0000000000000000000, 1.000000000000000000, 0.0000000000000000000 ) ) ;
#139 = AXIS2_PLACEMENT_3D ( 'NONE', #34, #84, #138 ) ;
#140 = APPROVAL_PERSON_ORGANIZATION ( #118, #65, #142 ) ;
#141 = DIRECTION ( 'NONE',  ( 1.232595164407830946E-31, 1.000000000000000000, 3.469446951953614189E-17 ) ) ;
#142 = APPROVAL_ROLE ( '' ) ;
#143 = APPROVAL_DATE_TIME ( #29, #121 ) ;
#144 = CALENDAR_DATE ( 2021, 6, 12 ) ;
#145 = MANIFOLD_SOLID_BREP ( 'Corps-Déplacer/Copier1', #58 ) ;
#146 = APPLICATION_CONTEXT ( 'configuration controlled 3d designs of mechanical parts and assemblies' ) ;
#147 = PERSON_AND_ORGANIZATION_ROLE ( 'classification_officer' ) ;
#148 = APPLICATION_PROTOCOL_DEFINITION ( 'international standard', 'config_control_design', 1994, #2 ) ;
#149 = PLANE ( 'NONE',  #167 ) ;
#150 = ADVANCED_FACE ( 'NONE', ( #125, #35 ), #153, .F. ) ;
#151 = DIRECTION ( 'NONE',  ( -3.491481338843133355E-15, 3.673940397442058882E-17, -1.000000000000000000 ) ) ;
#152 = EDGE_LOOP ( 'NONE', ( #161 ) ) ;
#153 = CYLINDRICAL_SURFACE ( 'NONE', #100, 6.499999999999999112 ) ;
#154 = DIRECTION ( 'NONE',  ( 1.282749433769087232E-31, 1.000000000000000000, 3.673940397442058882E-17 ) ) ;
#155 = CALENDAR_DATE ( 2021, 6, 12 ) ;
#156 = CC_DESIGN_APPROVAL ( #27, ( #91 ) ) ;
#157 = DATE_AND_TIME ( #144, #83 ) ;
#158 = APPROVAL_ROLE ( '' ) ;
#159 = EDGE_LOOP ( 'NONE', ( #62 ) ) ;
#160 = PRODUCT_RELATED_PRODUCT_CATEGORY ( 'detail', '', ( #80 ) ) ;
#161 = ORIENTED_EDGE ( 'NONE', *, *, #110, .F. ) ;
#162 = DIRECTION ( 'NONE',  ( 1.282749433769087232E-31, 1.000000000000000000, 3.673940397442058882E-17 ) ) ;
#163 = FACE_BOUND ( 'NONE', #96, .T. ) ;
#164 = VERTEX_POINT ( 'NONE', #119 ) ;
#165 = CC_DESIGN_DATE_AND_TIME_ASSIGNMENT ( #102, #67, ( #52 ) ) ;
#166 = APPROVAL_DATE_TIME ( #157, #65 ) ;
#167 = AXIS2_PLACEMENT_3D ( 'NONE', #99, #56, #47 ) ;
#168 = CALENDAR_DATE ( 2021, 6, 12 ) ;
#169 = COORDINATED_UNIVERSAL_TIME_OFFSET ( 1, 0, .AHEAD. ) ;
ENDSEC;
END-ISO-10303-21;
