ISO-10303-21;
HEADER;
FILE_DESCRIPTION (( 'STEP AP203' ),
    '1' );
FILE_NAME ('35097.step',
    '2021-12-06T12:59:02',
    ( '' ),
    ( '' ),
    'SwSTEP 2.0',
    'SolidWorks 2019',
    '' );
FILE_SCHEMA (( 'CONFIG_CONTROL_DESIGN' ));
ENDSEC;

DATA;
#1 = PRODUCT ( '35097', '35097', '', ( #74 ) ) ;
#2 = DATE_AND_TIME ( #15, #100 ) ;
#3 =( NAMED_UNIT ( * ) SI_UNIT ( $, .STERADIAN. ) SOLID_ANGLE_UNIT ( ) );
#4 = CYLINDRICAL_SURFACE ( 'NONE', #124, 4.999999999999999112 ) ;
#5 = VERTEX_POINT ( 'NONE', #19 ) ;
#6 = COORDINATED_UNIVERSAL_TIME_OFFSET ( 1, 0, .AHEAD. ) ;
#7 = LOCAL_TIME ( 13, 59, 2.000000000000000000, #27 ) ;
#8 = EDGE_LOOP ( 'NONE', ( #140 ) ) ;
#9 = CC_DESIGN_PERSON_AND_ORGANIZATION_ASSIGNMENT ( #88, #156, ( #1 ) ) ;
#10 = DIRECTION ( 'NONE',  ( -3.491481338843133355E-15, 3.673940397442058882E-17, -1.000000000000000000 ) ) ;
#11 = ORIENTED_EDGE ( 'NONE', *, *, #139, .F. ) ;
#12 = LOCAL_TIME ( 13, 59, 2.000000000000000000, #6 ) ;
#13 = ORIENTED_EDGE ( 'NONE', *, *, #21, .F. ) ;
#14 = APPROVAL_PERSON_ORGANIZATION ( #134, #157, #145 ) ;
#15 = CALENDAR_DATE ( 2021, 6, 12 ) ;
#16 = DIRECTION ( 'NONE',  ( -3.491481338843133355E-15, 3.673940397442058882E-17, -1.000000000000000000 ) ) ;
#17 = PERSON_AND_ORGANIZATION ( #33, #70 ) ;
#18 = DATE_AND_TIME ( #106, #12 ) ;
#19 = CARTESIAN_POINT ( 'NONE',  ( 1.745740669421566678E-14, 20.00000000000000000, 5.000000000000000000 ) ) ;
#20 = APPROVAL_DATE_TIME ( #149, #75 ) ;
#21 = EDGE_CURVE ( 'NONE', #144, #144, #114, .T. ) ;
#22 = LOCAL_TIME ( 13, 59, 2.000000000000000000, #42 ) ;
#23 = CC_DESIGN_PERSON_AND_ORGANIZATION_ASSIGNMENT ( #17, #102, ( #36 ) ) ;
#24 = CARTESIAN_POINT ( 'NONE',  ( 1.745740669421566993E-14, 4.999999999999999112, 5.000000000000000888 ) ) ;
#25 = DIRECTION ( 'NONE',  ( -3.491481338843133355E-15, 3.673940397442058882E-17, -1.000000000000000000 ) ) ;
#26 = APPROVAL_PERSON_ORGANIZATION ( #86, #115, #87 ) ;
#27 = COORDINATED_UNIVERSAL_TIME_OFFSET ( 1, 0, .AHEAD. ) ;
#28 = VERTEX_POINT ( 'NONE', #136 ) ;
#29 = DIRECTION ( 'NONE',  ( -3.491481338843133355E-15, 3.673940397442058882E-17, -1.000000000000000000 ) ) ;
#30 = CLOSED_SHELL ( 'NONE', ( #92, #111, #47, #108 ) ) ;
#31 = DATE_TIME_ROLE ( 'creation_date' ) ;
#32 = APPROVAL_ROLE ( '' ) ;
#33 = PERSON ( 'UNSPECIFIED', 'UNSPECIFIED', 'UNSPECIFIED', ('UNSPECIFIED'), ('UNSPECIFIED'), ('UNSPECIFIED') ) ;
#34 = APPLICATION_CONTEXT ( 'configuration controlled 3d designs of mechanical parts and assemblies' ) ;
#35 = ORIENTED_EDGE ( 'NONE', *, *, #73, .T. ) ;
#36 = PRODUCT_DEFINITION_FORMATION_WITH_SPECIFIED_SOURCE ( 'ANY', '', #1, .NOT_KNOWN. ) ;
#37 = PLANE ( 'NONE',  #50 ) ;
#38 = EDGE_CURVE ( 'NONE', #5, #5, #66, .T. ) ;
#39 = DIRECTION ( 'NONE',  ( 1.000000000000000000, 0.0000000000000000000, 0.0000000000000000000 ) ) ;
#40 = CARTESIAN_POINT ( 'NONE',  ( 0.0000000000000000000, 0.0000000000000000000, 0.0000000000000000000 ) ) ;
#41 = DATE_AND_TIME ( #63, #7 ) ;
#42 = COORDINATED_UNIVERSAL_TIME_OFFSET ( 1, 0, .AHEAD. ) ;
#43 = SECURITY_CLASSIFICATION ( '', '', #54 ) ;
#44 = DIRECTION ( 'NONE',  ( 0.0000000000000000000, 0.0000000000000000000, 1.000000000000000000 ) ) ;
#45 = PERSON_AND_ORGANIZATION_ROLE ( 'creator' ) ;
#46 = DIRECTION ( 'NONE',  ( -3.491481338843133355E-15, 3.673940397442058882E-17, -1.000000000000000000 ) ) ;
#47 = ADVANCED_FACE ( 'NONE', ( #152, #153 ), #37, .T. ) ;
#48 = PRODUCT_DEFINITION ( 'UNKNOWN', '', #36, #64 ) ;
#49 = CC_DESIGN_APPROVAL ( #157, ( #48 ) ) ;
#50 = AXIS2_PLACEMENT_3D ( 'NONE', #24, #69, #122 ) ;
#51 = SHAPE_DEFINITION_REPRESENTATION ( #80, #97 ) ;
#52 = DATE_TIME_ROLE ( 'classification_date' ) ;
#53 = APPROVAL_DATE_TIME ( #41, #115 ) ;
#54 = SECURITY_CLASSIFICATION_LEVEL ( 'unclassified' ) ;
#55 = APPLICATION_PROTOCOL_DEFINITION ( 'international standard', 'config_control_design', 1994, #58 ) ;
#56 =( GEOMETRIC_REPRESENTATION_CONTEXT ( 3 ) GLOBAL_UNCERTAINTY_ASSIGNED_CONTEXT ( ( #104 ) ) GLOBAL_UNIT_ASSIGNED_CONTEXT ( ( #99, #72, #3 ) ) REPRESENTATION_CONTEXT ( 'NONE', 'WORKASPACE' ) );
#57 = VERTEX_POINT ( 'NONE', #161 ) ;
#58 = APPLICATION_CONTEXT ( 'configuration controlled 3d designs of mechanical parts and assemblies' ) ;
#59 = CARTESIAN_POINT ( 'NONE',  ( -6.413747168845437910E-31, 6.748919021978356498E-33, -1.836970198721029688E-16 ) ) ;
#60 = ORIENTED_EDGE ( 'NONE', *, *, #38, .F. ) ;
#61 = APPROVAL_DATE_TIME ( #18, #157 ) ;
#62 = CYLINDRICAL_SURFACE ( 'NONE', #82, 20.00000000000000000 ) ;
#63 = CALENDAR_DATE ( 2021, 6, 12 ) ;
#64 = DESIGN_CONTEXT ( 'detailed design', #34, 'design' ) ;
#65 = PERSON_AND_ORGANIZATION ( #33, #70 ) ;
#66 = CIRCLE ( 'NONE', #79, 20.00000000000000000 ) ;
#67 = COORDINATED_UNIVERSAL_TIME_OFFSET ( 1, 0, .AHEAD. ) ;
#68 = APPROVAL_PERSON_ORGANIZATION ( #65, #75, #32 ) ;
#69 = DIRECTION ( 'NONE',  ( 3.491481338843133355E-15, -3.673940397442058882E-17, 1.000000000000000000 ) ) ;
#70 = ORGANIZATION ( 'UNSPECIFIED', 'UNSPECIFIED', '' ) ;
#71 = DIRECTION ( 'NONE',  ( 1.282749433769087232E-31, 1.000000000000000000, 3.673940397442058882E-17 ) ) ;
#72 =( NAMED_UNIT ( * ) PLANE_ANGLE_UNIT ( ) SI_UNIT ( $, .RADIAN. ) );
#73 = EDGE_CURVE ( 'NONE', #57, #57, #105, .T. ) ;
#74 = MECHANICAL_CONTEXT ( 'NONE', #58, 'mechanical' ) ;
#75 = APPROVAL ( #120, 'UNSPECIFIED' ) ;
#76 = AXIS2_PLACEMENT_3D ( 'NONE', #141, #25, #71 ) ;
#77 = APPLICATION_PROTOCOL_DEFINITION ( 'international standard', 'config_control_design', 1994, #34 ) ;
#78 = PERSON_AND_ORGANIZATION ( #33, #70 ) ;
#79 = AXIS2_PLACEMENT_3D ( 'NONE', #125, #10, #95 ) ;
#80 = PRODUCT_DEFINITION_SHAPE ( 'NONE', 'NONE',  #48 ) ;
#81 = MANIFOLD_SOLID_BREP ( 'Corps-Déplacer/Copier1', #30 ) ;
#82 = AXIS2_PLACEMENT_3D ( 'NONE', #40, #16, #135 ) ;
#83 = EDGE_LOOP ( 'NONE', ( #165 ) ) ;
#84 = PLANE ( 'NONE',  #76 ) ;
#85 = PERSON_AND_ORGANIZATION ( #33, #70 ) ;
#86 = PERSON_AND_ORGANIZATION ( #33, #70 ) ;
#87 = APPROVAL_ROLE ( '' ) ;
#88 = PERSON_AND_ORGANIZATION ( #33, #70 ) ;
#89 = APPROVAL_STATUS ( 'not_yet_approved' ) ;
#90 = CC_DESIGN_SECURITY_CLASSIFICATION ( #43, ( #36 ) ) ;
#91 = CARTESIAN_POINT ( 'NONE',  ( 0.0000000000000000000, 0.0000000000000000000, 0.0000000000000000000 ) ) ;
#92 = ADVANCED_FACE ( 'NONE', ( #166, #154 ), #84, .T. ) ;
#93 = EDGE_LOOP ( 'NONE', ( #60 ) ) ;
#94 = DIRECTION ( 'NONE',  ( 1.282749433769087451E-31, 1.000000000000000000, 3.673940397442059498E-17 ) ) ;
#95 = DIRECTION ( 'NONE',  ( 1.540743955509788682E-31, 1.000000000000000000, 4.336808689942017736E-17 ) ) ;
#96 = EDGE_LOOP ( 'NONE', ( #13 ) ) ;
#97 = ADVANCED_BREP_SHAPE_REPRESENTATION ( '35097', ( #81, #169 ), #56 ) ;
#98 = EDGE_LOOP ( 'NONE', ( #11 ) ) ;
#99 =( LENGTH_UNIT ( ) NAMED_UNIT ( * ) SI_UNIT ( .MILLI., .METRE. ) );
#100 = LOCAL_TIME ( 13, 59, 2.000000000000000000, #158 ) ;
#101 = FACE_OUTER_BOUND ( 'NONE', #83, .T. ) ;
#102 = PERSON_AND_ORGANIZATION_ROLE ( 'design_supplier' ) ;
#103 = FACE_OUTER_BOUND ( 'NONE', #98, .T. ) ;
#104 = UNCERTAINTY_MEASURE_WITH_UNIT (LENGTH_MEASURE( 1.000000000000000082E-05 ), #99, 'distance_accuracy_value', 'NONE');
#105 = CIRCLE ( 'NONE', #150, 5.000000000000000000 ) ;
#106 = CALENDAR_DATE ( 2021, 6, 12 ) ;
#107 = PRODUCT_RELATED_PRODUCT_CATEGORY ( 'detail', '', ( #1 ) ) ;
#108 = ADVANCED_FACE ( 'NONE', ( #128, #103 ), #4, .F. ) ;
#109 = EDGE_LOOP ( 'NONE', ( #35 ) ) ;
#110 = CIRCLE ( 'NONE', #163, 4.999999999999999112 ) ;
#111 = ADVANCED_FACE ( 'NONE', ( #101, #121 ), #62, .T. ) ;
#112 = ORIENTED_EDGE ( 'NONE', *, *, #73, .F. ) ;
#113 = CALENDAR_DATE ( 2021, 6, 12 ) ;
#114 = CIRCLE ( 'NONE', #123, 20.00000000000000000 ) ;
#115 = APPROVAL ( #132, 'UNSPECIFIED' ) ;
#116 = PERSON_AND_ORGANIZATION_ROLE ( 'classification_officer' ) ;
#117 = CARTESIAN_POINT ( 'NONE',  ( -3.421138828918010427E-46, 20.00000000000000000, 0.0000000000000000000 ) ) ;
#118 = CC_DESIGN_APPROVAL ( #115, ( #43 ) ) ;
#119 = CARTESIAN_POINT ( 'NONE',  ( 1.745740669421566993E-14, -1.836970198721029934E-16, 5.000000000000000888 ) ) ;
#120 = APPROVAL_STATUS ( 'not_yet_approved' ) ;
#121 = FACE_OUTER_BOUND ( 'NONE', #96, .T. ) ;
#122 = DIRECTION ( 'NONE',  ( -1.282749433769087232E-31, -1.000000000000000000, -3.673940397442058882E-17 ) ) ;
#123 = AXIS2_PLACEMENT_3D ( 'NONE', #155, #46, #94 ) ;
#124 = AXIS2_PLACEMENT_3D ( 'NONE', #91, #29, #129 ) ;
#125 = CARTESIAN_POINT ( 'NONE',  ( 1.745740669421566362E-14, -1.836970198721029194E-16, 4.999999999999999112 ) ) ;
#126 = CC_DESIGN_PERSON_AND_ORGANIZATION_ASSIGNMENT ( #78, #131, ( #36 ) ) ;
#127 = DIRECTION ( 'NONE',  ( -3.491481338843133355E-15, 3.673940397442058882E-17, -1.000000000000000000 ) ) ;
#128 = FACE_OUTER_BOUND ( 'NONE', #109, .T. ) ;
#129 = DIRECTION ( 'NONE',  ( 1.282749433769087232E-31, 1.000000000000000000, 3.673940397442058882E-17 ) ) ;
#130 = CC_DESIGN_DATE_AND_TIME_ASSIGNMENT ( #2, #52, ( #43 ) ) ;
#131 = PERSON_AND_ORGANIZATION_ROLE ( 'creator' ) ;
#132 = APPROVAL_STATUS ( 'not_yet_approved' ) ;
#133 = DIRECTION ( 'NONE',  ( -3.491481338843133355E-15, 3.673940397442058882E-17, -1.000000000000000000 ) ) ;
#134 = PERSON_AND_ORGANIZATION ( #33, #70 ) ;
#135 = DIRECTION ( 'NONE',  ( 1.282749433769087451E-31, 1.000000000000000000, 3.673940397442059498E-17 ) ) ;
#136 = CARTESIAN_POINT ( 'NONE',  ( 1.745740669421566993E-14, 4.999999999999999112, 5.000000000000000888 ) ) ;
#137 = CALENDAR_DATE ( 2021, 6, 12 ) ;
#138 = CC_DESIGN_APPROVAL ( #75, ( #36 ) ) ;
#139 = EDGE_CURVE ( 'NONE', #28, #28, #110, .T. ) ;
#140 = ORIENTED_EDGE ( 'NONE', *, *, #139, .T. ) ;
#141 = CARTESIAN_POINT ( 'NONE',  ( -9.620620753268156427E-31, 5.000000000000000000, -2.755455298081544285E-16 ) ) ;
#142 = CC_DESIGN_PERSON_AND_ORGANIZATION_ASSIGNMENT ( #85, #45, ( #48 ) ) ;
#143 = DIRECTION ( 'NONE',  ( 1.282749433769087451E-31, 1.000000000000000000, 3.673940397442059498E-17 ) ) ;
#144 = VERTEX_POINT ( 'NONE', #117 ) ;
#145 = APPROVAL_ROLE ( '' ) ;
#146 = DATE_AND_TIME ( #113, #22 ) ;
#147 = LOCAL_TIME ( 13, 59, 2.000000000000000000, #67 ) ;
#148 = CC_DESIGN_PERSON_AND_ORGANIZATION_ASSIGNMENT ( #160, #116, ( #43 ) ) ;
#149 = DATE_AND_TIME ( #137, #147 ) ;
#150 = AXIS2_PLACEMENT_3D ( 'NONE', #59, #127, #143 ) ;
#151 = ORIENTED_EDGE ( 'NONE', *, *, #21, .T. ) ;
#152 = FACE_BOUND ( 'NONE', #8, .T. ) ;
#153 = FACE_OUTER_BOUND ( 'NONE', #93, .T. ) ;
#154 = FACE_BOUND ( 'NONE', #164, .T. ) ;
#155 = CARTESIAN_POINT ( 'NONE',  ( -2.565498867538175164E-30, 2.699567608791342599E-32, -7.347880794884118750E-16 ) ) ;
#156 = PERSON_AND_ORGANIZATION_ROLE ( 'design_owner' ) ;
#157 = APPROVAL ( #89, 'UNSPECIFIED' ) ;
#158 = COORDINATED_UNIVERSAL_TIME_OFFSET ( 1, 0, .AHEAD. ) ;
#159 = CC_DESIGN_DATE_AND_TIME_ASSIGNMENT ( #146, #31, ( #48 ) ) ;
#160 = PERSON_AND_ORGANIZATION ( #33, #70 ) ;
#161 = CARTESIAN_POINT ( 'NONE',  ( -8.552847072295026068E-47, 5.000000000000000000, 0.0000000000000000000 ) ) ;
#162 = CARTESIAN_POINT ( 'NONE',  ( 0.0000000000000000000, 0.0000000000000000000, 0.0000000000000000000 ) ) ;
#163 = AXIS2_PLACEMENT_3D ( 'NONE', #119, #133, #168 ) ;
#164 = EDGE_LOOP ( 'NONE', ( #112 ) ) ;
#165 = ORIENTED_EDGE ( 'NONE', *, *, #38, .T. ) ;
#166 = FACE_OUTER_BOUND ( 'NONE', #167, .T. ) ;
#167 = EDGE_LOOP ( 'NONE', ( #151 ) ) ;
#168 = DIRECTION ( 'NONE',  ( 0.0000000000000000000, 1.000000000000000000, 0.0000000000000000000 ) ) ;
#169 = AXIS2_PLACEMENT_3D ( 'NONE', #162, #44, #39 ) ;
ENDSEC;
END-ISO-10303-21;
