ISO-10303-21;
HEADER;
FILE_DESCRIPTION (( 'STEP AP203' ),
    '1' );
FILE_NAME ('35095.step',
    '2021-12-06T12:59:01',
    ( '' ),
    ( '' ),
    'SwSTEP 2.0',
    'SolidWorks 2019',
    '' );
FILE_SCHEMA (( 'CONFIG_CONTROL_DESIGN' ));
ENDSEC;

DATA;
#1 = APPROVAL_ROLE ( '' ) ;
#2 = CALENDAR_DATE ( 2021, 6, 12 ) ;
#3 = AXIS2_PLACEMENT_3D ( 'NONE', #111, #105, #15 ) ;
#4 = CARTESIAN_POINT ( 'NONE',  ( 1.745740669421566678E-14, 15.00000000000000000, 5.000000000000000000 ) ) ;
#5 = PLANE ( 'NONE',  #132 ) ;
#6 = EDGE_LOOP ( 'NONE', ( #157 ) ) ;
#7 =( LENGTH_UNIT ( ) NAMED_UNIT ( * ) SI_UNIT ( .MILLI., .METRE. ) );
#8 = DIRECTION ( 'NONE',  ( 1.282749433769087232E-31, 1.000000000000000000, 3.673940397442058266E-17 ) ) ;
#9 = CALENDAR_DATE ( 2021, 6, 12 ) ;
#10 = COORDINATED_UNIVERSAL_TIME_OFFSET ( 1, 0, .AHEAD. ) ;
#11 = APPROVAL_STATUS ( 'not_yet_approved' ) ;
#12 = PERSON_AND_ORGANIZATION ( #69, #103 ) ;
#13 = PERSON_AND_ORGANIZATION_ROLE ( 'design_owner' ) ;
#14 = CARTESIAN_POINT ( 'NONE',  ( 0.0000000000000000000, 0.0000000000000000000, 0.0000000000000000000 ) ) ;
#15 = DIRECTION ( 'NONE',  ( 1.282749433769087232E-31, 1.000000000000000000, 3.673940397442058266E-17 ) ) ;
#16 = LOCAL_TIME ( 13, 59, 1.000000000000000000, #50 ) ;
#17 = EDGE_LOOP ( 'NONE', ( #142 ) ) ;
#18 = SECURITY_CLASSIFICATION ( '', '', #141 ) ;
#19 = CLOSED_SHELL ( 'NONE', ( #59, #74, #152, #124 ) ) ;
#20 = PRODUCT_DEFINITION ( 'UNKNOWN', '', #117, #98 ) ;
#21 = PERSON_AND_ORGANIZATION ( #69, #103 ) ;
#22 = COORDINATED_UNIVERSAL_TIME_OFFSET ( 1, 0, .AHEAD. ) ;
#23 = AXIS2_PLACEMENT_3D ( 'NONE', #39, #29, #110 ) ;
#24 = APPROVAL_PERSON_ORGANIZATION ( #71, #139, #146 ) ;
#25 = CC_DESIGN_PERSON_AND_ORGANIZATION_ASSIGNMENT ( #86, #143, ( #117 ) ) ;
#26 = DATE_AND_TIME ( #2, #133 ) ;
#27 = FACE_OUTER_BOUND ( 'NONE', #17, .T. ) ;
#28 = CYLINDRICAL_SURFACE ( 'NONE', #65, 15.00000000000000000 ) ;
#29 = DIRECTION ( 'NONE',  ( 3.491481338843133355E-15, -3.673940397442058882E-17, 1.000000000000000000 ) ) ;
#30 = EDGE_CURVE ( 'NONE', #122, #122, #116, .T. ) ;
#31 = CARTESIAN_POINT ( 'NONE',  ( 1.745740669421566362E-14, -1.836970198721029194E-16, 4.999999999999999112 ) ) ;
#32 = PRODUCT_RELATED_PRODUCT_CATEGORY ( 'detail', '', ( #77 ) ) ;
#33 = APPROVAL_PERSON_ORGANIZATION ( #21, #112, #46 ) ;
#34 = PERSON_AND_ORGANIZATION ( #69, #103 ) ;
#35 = ORIENTED_EDGE ( 'NONE', *, *, #108, .T. ) ;
#36 = APPROVAL_DATE_TIME ( #131, #112 ) ;
#37 = LOCAL_TIME ( 13, 59, 1.000000000000000000, #22 ) ;
#38 = CALENDAR_DATE ( 2021, 6, 12 ) ;
#39 = CARTESIAN_POINT ( 'NONE',  ( 1.745740669421566993E-14, 4.000000000000007105, 5.000000000000000888 ) ) ;
#40 = DIRECTION ( 'NONE',  ( -3.491481338843133355E-15, 3.673940397442058882E-17, -1.000000000000000000 ) ) ;
#41 = FACE_OUTER_BOUND ( 'NONE', #70, .T. ) ;
#42 = FACE_OUTER_BOUND ( 'NONE', #109, .T. ) ;
#43 = VERTEX_POINT ( 'NONE', #159 ) ;
#44 = ORIENTED_EDGE ( 'NONE', *, *, #30, .T. ) ;
#45 = APPLICATION_CONTEXT ( 'configuration controlled 3d designs of mechanical parts and assemblies' ) ;
#46 = APPROVAL_ROLE ( '' ) ;
#47 = CALENDAR_DATE ( 2021, 6, 12 ) ;
#48 = MECHANICAL_CONTEXT ( 'NONE', #45, 'mechanical' ) ;
#49 = ADVANCED_BREP_SHAPE_REPRESENTATION ( '35095', ( #140, #83 ), #53 ) ;
#50 = COORDINATED_UNIVERSAL_TIME_OFFSET ( 1, 0, .AHEAD. ) ;
#51 = COORDINATED_UNIVERSAL_TIME_OFFSET ( 1, 0, .AHEAD. ) ;
#52 = DIRECTION ( 'NONE',  ( 1.000000000000000000, 0.0000000000000000000, 0.0000000000000000000 ) ) ;
#53 =( GEOMETRIC_REPRESENTATION_CONTEXT ( 3 ) GLOBAL_UNCERTAINTY_ASSIGNED_CONTEXT ( ( #165 ) ) GLOBAL_UNIT_ASSIGNED_CONTEXT ( ( #7, #120, #90 ) ) REPRESENTATION_CONTEXT ( 'NONE', 'WORKASPACE' ) );
#54 = CC_DESIGN_APPROVAL ( #139, ( #18 ) ) ;
#55 = CARTESIAN_POINT ( 'NONE',  ( 0.0000000000000000000, 15.00000000000000000, 0.0000000000000000000 ) ) ;
#56 = DIRECTION ( 'NONE',  ( 1.282749433769087232E-31, 1.000000000000000000, 3.673940397442058882E-17 ) ) ;
#57 = CC_DESIGN_PERSON_AND_ORGANIZATION_ASSIGNMENT ( #168, #85, ( #117 ) ) ;
#58 = DIRECTION ( 'NONE',  ( 1.282749433769087232E-31, 1.000000000000000000, 3.673940397442058882E-17 ) ) ;
#59 = ADVANCED_FACE ( 'NONE', ( #107, #68 ), #5, .T. ) ;
#60 = APPROVAL_DATE_TIME ( #115, #158 ) ;
#61 = CIRCLE ( 'NONE', #3, 15.00000000000000000 ) ;
#62 = DATE_AND_TIME ( #9, #37 ) ;
#63 = DIRECTION ( 'NONE',  ( 0.0000000000000000000, 0.0000000000000000000, 1.000000000000000000 ) ) ;
#64 = FACE_BOUND ( 'NONE', #161, .T. ) ;
#65 = AXIS2_PLACEMENT_3D ( 'NONE', #80, #95, #8 ) ;
#66 = CARTESIAN_POINT ( 'NONE',  ( -5.130997735076349802E-31, 5.399135217582685746E-33, -1.469576158976823553E-16 ) ) ;
#67 = ORIENTED_EDGE ( 'NONE', *, *, #169, .T. ) ;
#68 = FACE_BOUND ( 'NONE', #6, .T. ) ;
#69 = PERSON ( 'UNSPECIFIED', 'UNSPECIFIED', 'UNSPECIFIED', ('UNSPECIFIED'), ('UNSPECIFIED'), ('UNSPECIFIED') ) ;
#70 = EDGE_LOOP ( 'NONE', ( #136 ) ) ;
#71 = PERSON_AND_ORGANIZATION ( #69, #103 ) ;
#72 = PERSON_AND_ORGANIZATION ( #69, #103 ) ;
#73 = AXIS2_PLACEMENT_3D ( 'NONE', #31, #40, #82 ) ;
#74 = ADVANCED_FACE ( 'NONE', ( #148, #93 ), #28, .T. ) ;
#75 = APPLICATION_PROTOCOL_DEFINITION ( 'international standard', 'config_control_design', 1994, #129 ) ;
#76 = SHAPE_DEFINITION_REPRESENTATION ( #97, #49 ) ;
#77 = PRODUCT ( '35095', '35095', '', ( #48 ) ) ;
#78 = PERSON_AND_ORGANIZATION ( #69, #103 ) ;
#79 = DIRECTION ( 'NONE',  ( -3.491481338843133355E-15, 3.673940397442058882E-17, -1.000000000000000000 ) ) ;
#80 = CARTESIAN_POINT ( 'NONE',  ( 0.0000000000000000000, 0.0000000000000000000, 0.0000000000000000000 ) ) ;
#81 = VERTEX_POINT ( 'NONE', #137 ) ;
#82 = DIRECTION ( 'NONE',  ( 2.054325274013051723E-31, 1.000000000000000000, 5.782411586589357392E-17 ) ) ;
#83 = AXIS2_PLACEMENT_3D ( 'NONE', #156, #63, #52 ) ;
#84 = CC_DESIGN_PERSON_AND_ORGANIZATION_ASSIGNMENT ( #72, #130, ( #18 ) ) ;
#85 = PERSON_AND_ORGANIZATION_ROLE ( 'creator' ) ;
#86 = PERSON_AND_ORGANIZATION ( #69, #103 ) ;
#87 = AXIS2_PLACEMENT_3D ( 'NONE', #92, #79, #147 ) ;
#88 = EDGE_CURVE ( 'NONE', #126, #126, #61, .T. ) ;
#89 = CC_DESIGN_SECURITY_CLASSIFICATION ( #18, ( #117 ) ) ;
#90 =( NAMED_UNIT ( * ) SI_UNIT ( $, .STERADIAN. ) SOLID_ANGLE_UNIT ( ) );
#91 = CC_DESIGN_PERSON_AND_ORGANIZATION_ASSIGNMENT ( #78, #13, ( #77 ) ) ;
#92 = CARTESIAN_POINT ( 'NONE',  ( 1.745740669421566993E-14, -1.836970198721029934E-16, 5.000000000000000888 ) ) ;
#93 = FACE_OUTER_BOUND ( 'NONE', #125, .T. ) ;
#94 = DIRECTION ( 'NONE',  ( 1.282749433769087232E-31, 1.000000000000000000, 3.673940397442058882E-17 ) ) ;
#95 = DIRECTION ( 'NONE',  ( -3.491481338843133355E-15, 3.673940397442058882E-17, -1.000000000000000000 ) ) ;
#96 = AXIS2_PLACEMENT_3D ( 'NONE', #14, #106, #94 ) ;
#97 = PRODUCT_DEFINITION_SHAPE ( 'NONE', 'NONE',  #20 ) ;
#98 = DESIGN_CONTEXT ( 'detailed design', #129, 'design' ) ;
#99 = DATE_TIME_ROLE ( 'classification_date' ) ;
#100 = COORDINATED_UNIVERSAL_TIME_OFFSET ( 1, 0, .AHEAD. ) ;
#101 = DATE_AND_TIME ( #47, #163 ) ;
#102 = APPROVAL_DATE_TIME ( #26, #139 ) ;
#103 = ORGANIZATION ( 'UNSPECIFIED', 'UNSPECIFIED', '' ) ;
#104 = LOCAL_TIME ( 13, 59, 1.000000000000000000, #100 ) ;
#105 = DIRECTION ( 'NONE',  ( -3.491481338843133355E-15, 3.673940397442058882E-17, -1.000000000000000000 ) ) ;
#106 = DIRECTION ( 'NONE',  ( -3.491481338843133355E-15, 3.673940397442058882E-17, -1.000000000000000000 ) ) ;
#107 = FACE_OUTER_BOUND ( 'NONE', #138, .T. ) ;
#108 = EDGE_CURVE ( 'NONE', #43, #43, #162, .T. ) ;
#109 = EDGE_LOOP ( 'NONE', ( #35 ) ) ;
#110 = DIRECTION ( 'NONE',  ( -1.282749433769087232E-31, -1.000000000000000000, -3.673940397442058882E-17 ) ) ;
#111 = CARTESIAN_POINT ( 'NONE',  ( -1.924124150653630935E-30, 2.024675706593506676E-32, -5.510910596163087583E-16 ) ) ;
#112 = APPROVAL ( #166, 'UNSPECIFIED' ) ;
#113 = CC_DESIGN_APPROVAL ( #158, ( #20 ) ) ;
#114 = CC_DESIGN_APPROVAL ( #112, ( #117 ) ) ;
#115 = DATE_AND_TIME ( #38, #16 ) ;
#116 = CIRCLE ( 'NONE', #73, 15.00000000000000000 ) ;
#117 = PRODUCT_DEFINITION_FORMATION_WITH_SPECIFIED_SOURCE ( 'ANY', '', #77, .NOT_KNOWN. ) ;
#118 = DATE_TIME_ROLE ( 'creation_date' ) ;
#119 = APPROVAL_STATUS ( 'not_yet_approved' ) ;
#120 =( NAMED_UNIT ( * ) PLANE_ANGLE_UNIT ( ) SI_UNIT ( $, .RADIAN. ) );
#121 = CIRCLE ( 'NONE', #87, 4.000000000000007105 ) ;
#122 = VERTEX_POINT ( 'NONE', #4 ) ;
#123 = DIRECTION ( 'NONE',  ( -3.491481338843133355E-15, 3.673940397442058882E-17, -1.000000000000000000 ) ) ;
#124 = ADVANCED_FACE ( 'NONE', ( #42, #41 ), #135, .F. ) ;
#125 = EDGE_LOOP ( 'NONE', ( #167 ) ) ;
#126 = VERTEX_POINT ( 'NONE', #55 ) ;
#127 = CARTESIAN_POINT ( 'NONE',  ( -7.055121885729980212E-31, 4.000000000000000000, -2.020667218593132262E-16 ) ) ;
#128 = ORIENTED_EDGE ( 'NONE', *, *, #88, .T. ) ;
#129 = APPLICATION_CONTEXT ( 'configuration controlled 3d designs of mechanical parts and assemblies' ) ;
#130 = PERSON_AND_ORGANIZATION_ROLE ( 'classification_officer' ) ;
#131 = DATE_AND_TIME ( #154, #104 ) ;
#132 = AXIS2_PLACEMENT_3D ( 'NONE', #127, #160, #58 ) ;
#133 = LOCAL_TIME ( 13, 59, 1.000000000000000000, #51 ) ;
#134 = CC_DESIGN_PERSON_AND_ORGANIZATION_ASSIGNMENT ( #34, #153, ( #20 ) ) ;
#135 = CYLINDRICAL_SURFACE ( 'NONE', #96, 4.000000000000003553 ) ;
#136 = ORIENTED_EDGE ( 'NONE', *, *, #169, .F. ) ;
#137 = CARTESIAN_POINT ( 'NONE',  ( 1.745740669421566993E-14, 4.000000000000007105, 5.000000000000000888 ) ) ;
#138 = EDGE_LOOP ( 'NONE', ( #128 ) ) ;
#139 = APPROVAL ( #11, 'UNSPECIFIED' ) ;
#140 = MANIFOLD_SOLID_BREP ( 'Corps-Déplacer/Copier1', #19 ) ;
#141 = SECURITY_CLASSIFICATION_LEVEL ( 'unclassified' ) ;
#142 = ORIENTED_EDGE ( 'NONE', *, *, #30, .F. ) ;
#143 = PERSON_AND_ORGANIZATION_ROLE ( 'design_supplier' ) ;
#144 = CC_DESIGN_DATE_AND_TIME_ASSIGNMENT ( #62, #118, ( #20 ) ) ;
#145 = APPROVAL_PERSON_ORGANIZATION ( #12, #158, #1 ) ;
#146 = APPROVAL_ROLE ( '' ) ;
#147 = DIRECTION ( 'NONE',  ( 0.0000000000000000000, 1.000000000000000000, 0.0000000000000000000 ) ) ;
#148 = FACE_OUTER_BOUND ( 'NONE', #150, .T. ) ;
#149 = PLANE ( 'NONE',  #23 ) ;
#150 = EDGE_LOOP ( 'NONE', ( #44 ) ) ;
#151 = AXIS2_PLACEMENT_3D ( 'NONE', #66, #123, #56 ) ;
#152 = ADVANCED_FACE ( 'NONE', ( #64, #27 ), #149, .T. ) ;
#153 = PERSON_AND_ORGANIZATION_ROLE ( 'creator' ) ;
#154 = CALENDAR_DATE ( 2021, 6, 12 ) ;
#155 = APPLICATION_PROTOCOL_DEFINITION ( 'international standard', 'config_control_design', 1994, #45 ) ;
#156 = CARTESIAN_POINT ( 'NONE',  ( 0.0000000000000000000, 0.0000000000000000000, 0.0000000000000000000 ) ) ;
#157 = ORIENTED_EDGE ( 'NONE', *, *, #108, .F. ) ;
#158 = APPROVAL ( #119, 'UNSPECIFIED' ) ;
#159 = CARTESIAN_POINT ( 'NONE',  ( -8.552847072295026068E-47, 4.000000000000000000, 0.0000000000000000000 ) ) ;
#160 = DIRECTION ( 'NONE',  ( -3.491481338843133355E-15, 3.673940397442058882E-17, -1.000000000000000000 ) ) ;
#161 = EDGE_LOOP ( 'NONE', ( #67 ) ) ;
#162 = CIRCLE ( 'NONE', #151, 4.000000000000000000 ) ;
#163 = LOCAL_TIME ( 13, 59, 1.000000000000000000, #10 ) ;
#164 = CC_DESIGN_DATE_AND_TIME_ASSIGNMENT ( #101, #99, ( #18 ) ) ;
#165 = UNCERTAINTY_MEASURE_WITH_UNIT (LENGTH_MEASURE( 1.000000000000000082E-05 ), #7, 'distance_accuracy_value', 'NONE');
#166 = APPROVAL_STATUS ( 'not_yet_approved' ) ;
#167 = ORIENTED_EDGE ( 'NONE', *, *, #88, .F. ) ;
#168 = PERSON_AND_ORGANIZATION ( #69, #103 ) ;
#169 = EDGE_CURVE ( 'NONE', #81, #81, #121, .T. ) ;
ENDSEC;
END-ISO-10303-21;
