ISO-10303-21;
HEADER;
FILE_DESCRIPTION (( 'STEP AP203' ),
    '1' );
FILE_NAME ('35082.step',
    '2021-11-24T08:55:44',
    ( '' ),
    ( '' ),
    'SwSTEP 2.0',
    'SolidWorks 2019',
    '' );
FILE_SCHEMA (( 'CONFIG_CONTROL_DESIGN' ));
ENDSEC;

DATA;
#1 = COORDINATED_UNIVERSAL_TIME_OFFSET ( 1, 0, .AHEAD. ) ;
#2 = PERSON_AND_ORGANIZATION ( #113, #129 ) ;
#3 = ORIENTED_EDGE ( 'NONE', *, *, #166, .T. ) ;
#4 = CC_DESIGN_SECURITY_CLASSIFICATION ( #34, ( #123 ) ) ;
#5 = APPROVAL_DATE_TIME ( #118, #74 ) ;
#6 = DIRECTION ( 'NONE',  ( -3.491481338843133355E-15, 1.224646799147353207E-16, -1.000000000000000000 ) ) ;
#7 = PRODUCT_DEFINITION ( 'UNKNOWN', '', #123, #45 ) ;
#8 = PERSON_AND_ORGANIZATION ( #113, #129 ) ;
#9 = LOCAL_TIME ( 9, 55, 44.00000000000000000, #114 ) ;
#10 = ORIENTED_EDGE ( 'NONE', *, *, #179, .F. ) ;
#11 = DATE_TIME_ROLE ( 'creation_date' ) ;
#12 = CONICAL_SURFACE ( 'NONE', #98, 2.000000000000003109, 0.7853981633974479459 ) ;
#13 = DATE_AND_TIME ( #141, #27 ) ;
#14 = APPROVAL_ROLE ( '' ) ;
#15 = EDGE_LOOP ( 'NONE', ( #3 ) ) ;
#16 = PERSON_AND_ORGANIZATION_ROLE ( 'classification_officer' ) ;
#17 = ADVANCED_BREP_SHAPE_REPRESENTATION ( '35082', ( #66, #64, #178 ), #112 ) ;
#18 = ORIENTED_EDGE ( 'NONE', *, *, #130, .F. ) ;
#19 = FACE_OUTER_BOUND ( 'NONE', #103, .T. ) ;
#20 = DIRECTION ( 'NONE',  ( 3.491481338843133355E-15, -1.224646799147353207E-16, 1.000000000000000000 ) ) ;
#21 = PERSON_AND_ORGANIZATION_ROLE ( 'design_owner' ) ;
#22 = CIRCLE ( 'NONE', #136, 2.499999999999994227 ) ;
#23 = AXIS2_PLACEMENT_3D ( 'NONE', #109, #147, #82 ) ;
#24 = FACE_OUTER_BOUND ( 'NONE', #15, .T. ) ;
#25 = ORIENTED_EDGE ( 'NONE', *, *, #130, .T. ) ;
#26 = PERSON_AND_ORGANIZATION ( #113, #129 ) ;
#27 = LOCAL_TIME ( 9, 55, 44.00000000000000000, #90 ) ;
#28 = SHAPE_DEFINITION_REPRESENTATION ( #78, #17 ) ;
#29 = ORIENTED_EDGE ( 'NONE', *, *, #35, .F. ) ;
#30 = EDGE_LOOP ( 'NONE', ( #57 ) ) ;
#31 = FACE_OUTER_BOUND ( 'NONE', #157, .T. ) ;
#32 = CARTESIAN_POINT ( 'NONE',  ( 0.0000000000000000000, 0.0000000000000000000, 0.0000000000000000000 ) ) ;
#33 = DIRECTION ( 'NONE',  ( 3.491481338843133355E-15, -1.224646799147353207E-16, 1.000000000000000000 ) ) ;
#34 = SECURITY_CLASSIFICATION ( '', '', #86 ) ;
#35 = EDGE_CURVE ( 'NONE', #119, #119, #153, .T. ) ;
#36 = CARTESIAN_POINT ( 'NONE',  ( 1.511855768138746799E-14, -5.302876193624598916E-16, 4.330127018922246052 ) ) ;
#37 = PRODUCT ( '35082', '35082', '', ( #97 ) ) ;
#38 = PERSON_AND_ORGANIZATION ( #113, #129 ) ;
#39 = ADVANCED_FACE ( 'NONE', ( #138 ), #150, .T. ) ;
#40 = AXIS2_PLACEMENT_3D ( 'NONE', #42, #99, #151 ) ;
#41 = CC_DESIGN_DATE_AND_TIME_ASSIGNMENT ( #127, #169, ( #34 ) ) ;
#42 = CARTESIAN_POINT ( 'NONE',  ( 1.511855768138746799E-14, -5.302876193624598916E-16, 4.330127018922246052 ) ) ;
#43 = APPROVAL_STATUS ( 'not_yet_approved' ) ;
#44 = APPROVAL_DATE_TIME ( #13, #63 ) ;
#45 = DESIGN_CONTEXT ( 'detailed design', #81, 'design' ) ;
#46 = EDGE_LOOP ( 'NONE', ( #10 ) ) ;
#47 = PERSON_AND_ORGANIZATION ( #113, #129 ) ;
#48 = PLANE ( 'NONE',  #140 ) ;
#49 = DIRECTION ( 'NONE',  ( 0.0000000000000000000, 1.000000000000000000, 0.0000000000000000000 ) ) ;
#50 = CARTESIAN_POINT ( 'NONE',  ( 1.511855768138746799E-14, 2.499999999999993783, 4.330127018922246052 ) ) ;
#51 = DIRECTION ( 'NONE',  ( 4.275831445896958607E-31, 1.000000000000000000, 1.224646799147353207E-16 ) ) ;
#52 = FACE_BOUND ( 'NONE', #173, .T. ) ;
#53 = CARTESIAN_POINT ( 'NONE',  ( 0.0000000000000000000, 0.0000000000000000000, 0.0000000000000000000 ) ) ;
#54 = CLOSED_SHELL ( 'NONE', ( #39, #182 ) ) ;
#55 = CIRCLE ( 'NONE', #23, 2.499999999999994227 ) ;
#56 = APPROVAL_PERSON_ORGANIZATION ( #26, #91, #170 ) ;
#57 = ORIENTED_EDGE ( 'NONE', *, *, #35, .T. ) ;
#58 = ADVANCED_FACE ( 'NONE', ( #24 ), #125, .F. ) ;
#59 = DIRECTION ( 'NONE',  ( 0.0000000000000000000, 1.000000000000000000, 0.0000000000000000000 ) ) ;
#60 = ADVANCED_FACE ( 'NONE', ( #19, #161 ), #77, .T. ) ;
#61 = VERTEX_POINT ( 'NONE', #143 ) ;
#62 = AXIS2_PLACEMENT_3D ( 'NONE', #165, #131, #51 ) ;
#63 = APPROVAL ( #126, 'UNSPECIFIED' ) ;
#64 = MANIFOLD_SOLID_BREP ( 'Corps-Déplacer/Copier1[2]', #54 ) ;
#65 = CC_DESIGN_PERSON_AND_ORGANIZATION_ASSIGNMENT ( #70, #152, ( #7 ) ) ;
#66 = MANIFOLD_SOLID_BREP ( 'Corps-Déplacer/Copier1[1]', #133 ) ;
#67 = CARTESIAN_POINT ( 'NONE',  ( 1.728283262727351074E-13, -6.062001655779398511E-15, 49.50000000000000000 ) ) ;
#68 = APPROVAL_STATUS ( 'not_yet_approved' ) ;
#69 = PRODUCT_RELATED_PRODUCT_CATEGORY ( 'detail', '', ( #37 ) ) ;
#70 = PERSON_AND_ORGANIZATION ( #113, #129 ) ;
#71 = APPROVAL_DATE_TIME ( #158, #91 ) ;
#72 = EDGE_LOOP ( 'NONE', ( #29 ) ) ;
#73 = PERSON_AND_ORGANIZATION ( #113, #129 ) ;
#74 = APPROVAL ( #43, 'UNSPECIFIED' ) ;
#75 = DIRECTION ( 'NONE',  ( -3.491481338843133355E-15, 1.224646799147353207E-16, -1.000000000000000000 ) ) ;
#76 =( NAMED_UNIT ( * ) SI_UNIT ( $, .STERADIAN. ) SOLID_ANGLE_UNIT ( ) );
#77 = CYLINDRICAL_SURFACE ( 'NONE', #145, 2.499999999999998668 ) ;
#78 = PRODUCT_DEFINITION_SHAPE ( 'NONE', 'NONE',  #7 ) ;
#79 = DIRECTION ( 'NONE',  ( -3.491481338843133355E-15, 1.224646799147353207E-16, -1.000000000000000000 ) ) ;
#80 = AXIS2_PLACEMENT_3D ( 'NONE', #93, #75, #94 ) ;
#81 = APPLICATION_CONTEXT ( 'configuration controlled 3d designs of mechanical parts and assemblies' ) ;
#82 = DIRECTION ( 'NONE',  ( 0.0000000000000000000, 1.000000000000000000, 0.0000000000000000000 ) ) ;
#83 = APPLICATION_PROTOCOL_DEFINITION ( 'international standard', 'config_control_design', 1994, #81 ) ;
#84 = CC_DESIGN_PERSON_AND_ORGANIZATION_ASSIGNMENT ( #47, #171, ( #123 ) ) ;
#85 = CC_DESIGN_APPROVAL ( #74, ( #34 ) ) ;
#86 = SECURITY_CLASSIFICATION_LEVEL ( 'unclassified' ) ;
#87 = CC_DESIGN_PERSON_AND_ORGANIZATION_ASSIGNMENT ( #105, #16, ( #34 ) ) ;
#88 = PERSON_AND_ORGANIZATION_ROLE ( 'design_supplier' ) ;
#89 = AXIS2_PLACEMENT_3D ( 'NONE', #67, #124, #181 ) ;
#90 = COORDINATED_UNIVERSAL_TIME_OFFSET ( 1, 0, .AHEAD. ) ;
#91 = APPROVAL ( #68, 'UNSPECIFIED' ) ;
#92 = APPROVAL_PERSON_ORGANIZATION ( #8, #63, #14 ) ;
#93 = CARTESIAN_POINT ( 'NONE',  ( 1.745740669421566678E-13, -6.123233995736766085E-15, 50.00000000000000000 ) ) ;
#94 = DIRECTION ( 'NONE',  ( 0.0000000000000000000, 1.000000000000000000, 0.0000000000000000000 ) ) ;
#95 = CC_DESIGN_APPROVAL ( #91, ( #123 ) ) ;
#96 = CARTESIAN_POINT ( 'NONE',  ( 1.511855768138747746E-14, 7.511572993685914866E-15, 4.330127018922248716 ) ) ;
#97 = MECHANICAL_CONTEXT ( 'NONE', #180, 'mechanical' ) ;
#98 = AXIS2_PLACEMENT_3D ( 'NONE', #148, #162, #49 ) ;
#99 = DIRECTION ( 'NONE',  ( 3.491481338843133355E-15, -1.224646799147353207E-16, 1.000000000000000000 ) ) ;
#100 = CALENDAR_DATE ( 2021, 24, 11 ) ;
#101 = CALENDAR_DATE ( 2021, 24, 11 ) ;
#102 = LOCAL_TIME ( 9, 55, 44.00000000000000000, #183 ) ;
#103 = EDGE_LOOP ( 'NONE', ( #159 ) ) ;
#104 = EDGE_LOOP ( 'NONE', ( #25 ) ) ;
#105 = PERSON_AND_ORGANIZATION ( #113, #129 ) ;
#106 = APPLICATION_PROTOCOL_DEFINITION ( 'international standard', 'config_control_design', 1994, #180 ) ;
#107 = CARTESIAN_POINT ( 'NONE',  ( 1.745740669421566678E-13, 1.999999999999997113, 50.00000000000000000 ) ) ;
#108 =( LENGTH_UNIT ( ) NAMED_UNIT ( * ) SI_UNIT ( .MILLI., .METRE. ) );
#109 = CARTESIAN_POINT ( 'NONE',  ( 1.511855768138746799E-14, -5.302876193624598916E-16, 4.330127018922246052 ) ) ;
#110 = DIRECTION ( 'NONE',  ( 4.275831445896959482E-31, 1.000000000000000000, 1.224646799147353207E-16 ) ) ;
#111 = DIRECTION ( 'NONE',  ( 0.0000000000000000000, 0.0000000000000000000, 1.000000000000000000 ) ) ;
#112 =( GEOMETRIC_REPRESENTATION_CONTEXT ( 3 ) GLOBAL_UNCERTAINTY_ASSIGNED_CONTEXT ( ( #156 ) ) GLOBAL_UNIT_ASSIGNED_CONTEXT ( ( #108, #175, #76 ) ) REPRESENTATION_CONTEXT ( 'NONE', 'WORKASPACE' ) );
#113 = PERSON ( 'UNSPECIFIED', 'UNSPECIFIED', 'UNSPECIFIED', ('UNSPECIFIED'), ('UNSPECIFIED'), ('UNSPECIFIED') ) ;
#114 = COORDINATED_UNIVERSAL_TIME_OFFSET ( 1, 0, .AHEAD. ) ;
#115 = CALENDAR_DATE ( 2021, 24, 11 ) ;
#116 = ADVANCED_FACE ( 'NONE', ( #134 ), #174, .F. ) ;
#117 = ORIENTED_EDGE ( 'NONE', *, *, #179, .T. ) ;
#118 = DATE_AND_TIME ( #100, #164 ) ;
#119 = VERTEX_POINT ( 'NONE', #120 ) ;
#120 = CARTESIAN_POINT ( 'NONE',  ( 1.728283262727351074E-13, 2.499999999999996891, 49.50000000000000000 ) ) ;
#121 = CARTESIAN_POINT ( 'NONE',  ( 1.511855768138747746E-14, 7.511572993685914866E-15, 4.330127018922248716 ) ) ;
#122 = CC_DESIGN_PERSON_AND_ORGANIZATION_ASSIGNMENT ( #73, #88, ( #123 ) ) ;
#123 = PRODUCT_DEFINITION_FORMATION_WITH_SPECIFIED_SOURCE ( 'ANY', '', #37, .NOT_KNOWN. ) ;
#124 = DIRECTION ( 'NONE',  ( -3.491481338843133355E-15, 1.224646799147353207E-16, -1.000000000000000000 ) ) ;
#125 = PLANE ( 'NONE',  #167 ) ;
#126 = APPROVAL_STATUS ( 'not_yet_approved' ) ;
#127 = DATE_AND_TIME ( #139, #9 ) ;
#128 = APPROVAL_ROLE ( '' ) ;
#129 = ORGANIZATION ( 'UNSPECIFIED', 'UNSPECIFIED', '' ) ;
#130 = EDGE_CURVE ( 'NONE', #163, #163, #55, .T. ) ;
#131 = DIRECTION ( 'NONE',  ( -3.491481338843133355E-15, 1.224646799147353207E-16, -1.000000000000000000 ) ) ;
#132 = VERTEX_POINT ( 'NONE', #107 ) ;
#133 = CLOSED_SHELL ( 'NONE', ( #58, #60, #168, #116 ) ) ;
#134 = FACE_OUTER_BOUND ( 'NONE', #46, .T. ) ;
#135 = FACE_OUTER_BOUND ( 'NONE', #72, .T. ) ;
#136 = AXIS2_PLACEMENT_3D ( 'NONE', #36, #6, #59 ) ;
#137 = APPROVAL_PERSON_ORGANIZATION ( #2, #74, #128 ) ;
#138 = FACE_OUTER_BOUND ( 'NONE', #104, .T. ) ;
#139 = CALENDAR_DATE ( 2021, 24, 11 ) ;
#140 = AXIS2_PLACEMENT_3D ( 'NONE', #121, #20, #176 ) ;
#141 = CALENDAR_DATE ( 2021, 24, 11 ) ;
#142 = DATE_AND_TIME ( #115, #102 ) ;
#143 = CARTESIAN_POINT ( 'NONE',  ( 1.511855768138746799E-14, 2.499999999999993783, 4.330127018922246052 ) ) ;
#144 = DIRECTION ( 'NONE',  ( -4.275831445896958607E-31, -1.000000000000000000, -1.224646799147353207E-16 ) ) ;
#145 = AXIS2_PLACEMENT_3D ( 'NONE', #32, #79, #110 ) ;
#146 = CC_DESIGN_PERSON_AND_ORGANIZATION_ASSIGNMENT ( #38, #21, ( #37 ) ) ;
#147 = DIRECTION ( 'NONE',  ( -3.491481338843133355E-15, 1.224646799147353207E-16, -1.000000000000000000 ) ) ;
#148 = CARTESIAN_POINT ( 'NONE',  ( 1.745740669421566678E-13, -6.123233995736766085E-15, 50.00000000000000000 ) ) ;
#149 = CC_DESIGN_DATE_AND_TIME_ASSIGNMENT ( #142, #11, ( #7 ) ) ;
#150 = CONICAL_SURFACE ( 'NONE', #40, 2.499999999999994227, 0.5235987755982925984 ) ;
#151 = DIRECTION ( 'NONE',  ( 0.0000000000000000000, -1.000000000000000000, 0.0000000000000000000 ) ) ;
#152 = PERSON_AND_ORGANIZATION_ROLE ( 'creator' ) ;
#153 = CIRCLE ( 'NONE', #89, 2.500000000000003109 ) ;
#154 = COORDINATED_UNIVERSAL_TIME_OFFSET ( 1, 0, .AHEAD. ) ;
#155 = CIRCLE ( 'NONE', #80, 2.000000000000003109 ) ;
#156 = UNCERTAINTY_MEASURE_WITH_UNIT (LENGTH_MEASURE( 1.000000000000000082E-05 ), #108, 'distance_accuracy_value', 'NONE');
#157 = EDGE_LOOP ( 'NONE', ( #18 ) ) ;
#158 = DATE_AND_TIME ( #101, #172 ) ;
#159 = ORIENTED_EDGE ( 'NONE', *, *, #166, .F. ) ;
#160 = CC_DESIGN_APPROVAL ( #63, ( #7 ) ) ;
#161 = FACE_OUTER_BOUND ( 'NONE', #30, .T. ) ;
#162 = DIRECTION ( 'NONE',  ( -3.491481338843133355E-15, 1.224646799147353207E-16, -1.000000000000000000 ) ) ;
#163 = VERTEX_POINT ( 'NONE', #50 ) ;
#164 = LOCAL_TIME ( 9, 55, 44.00000000000000000, #154 ) ;
#165 = CARTESIAN_POINT ( 'NONE',  ( 1.745740669421566678E-13, 1.499759782661850766E-32, 50.00000000000000000 ) ) ;
#166 = EDGE_CURVE ( 'NONE', #61, #61, #22, .T. ) ;
#167 = AXIS2_PLACEMENT_3D ( 'NONE', #96, #33, #144 ) ;
#168 = ADVANCED_FACE ( 'NONE', ( #135, #52 ), #12, .T. ) ;
#169 = DATE_TIME_ROLE ( 'classification_date' ) ;
#170 = APPROVAL_ROLE ( '' ) ;
#171 = PERSON_AND_ORGANIZATION_ROLE ( 'creator' ) ;
#172 = LOCAL_TIME ( 9, 55, 44.00000000000000000, #1 ) ;
#173 = EDGE_LOOP ( 'NONE', ( #117 ) ) ;
#174 = PLANE ( 'NONE',  #62 ) ;
#175 =( NAMED_UNIT ( * ) PLANE_ANGLE_UNIT ( ) SI_UNIT ( $, .RADIAN. ) );
#176 = DIRECTION ( 'NONE',  ( -4.275831445896958607E-31, -1.000000000000000000, -1.224646799147353207E-16 ) ) ;
#177 = DIRECTION ( 'NONE',  ( 1.000000000000000000, 0.0000000000000000000, 0.0000000000000000000 ) ) ;
#178 = AXIS2_PLACEMENT_3D ( 'NONE', #53, #111, #177 ) ;
#179 = EDGE_CURVE ( 'NONE', #132, #132, #155, .T. ) ;
#180 = APPLICATION_CONTEXT ( 'configuration controlled 3d designs of mechanical parts and assemblies' ) ;
#181 = DIRECTION ( 'NONE',  ( 0.0000000000000000000, 1.000000000000000000, 0.0000000000000000000 ) ) ;
#182 = ADVANCED_FACE ( 'NONE', ( #31 ), #48, .T. ) ;
#183 = COORDINATED_UNIVERSAL_TIME_OFFSET ( 1, 0, .AHEAD. ) ;
ENDSEC;
END-ISO-10303-21;
