ISO-10303-21;
HEADER;
FILE_DESCRIPTION (( 'STEP AP203' ),
    '1' );
FILE_NAME ('34973.step',
    '2021-11-12T06:57:04',
    ( '' ),
    ( '' ),
    'SwSTEP 2.0',
    'SolidWorks 2019',
    '' );
FILE_SCHEMA (( 'CONFIG_CONTROL_DESIGN' ));
ENDSEC;

DATA;
#1 = CALENDAR_DATE ( 2021, 12, 11 ) ;
#2 = DIRECTION ( 'NONE',  ( -3.491481338843133355E-15, 1.224646799147353207E-16, -1.000000000000000000 ) ) ;
#3 = FACE_OUTER_BOUND ( 'NONE', #202, .T. ) ;
#4 = CC_DESIGN_SECURITY_CLASSIFICATION ( #69, ( #199 ) ) ;
#5 = AXIS2_PLACEMENT_3D ( 'NONE', #144, #128, #11 ) ;
#6 = MANIFOLD_SOLID_BREP ( 'Corps-Déplacer/Copier1[1]', #20 ) ;
#7 = CC_DESIGN_PERSON_AND_ORGANIZATION_ASSIGNMENT ( #54, #48, ( #199 ) ) ;
#8 = CALENDAR_DATE ( 2021, 12, 11 ) ;
#9 = CARTESIAN_POINT ( 'NONE',  ( 2.793185071074506684E-14, 2.249639673992785317E-32, 8.000000000000000000 ) ) ;
#10 = PERSON_AND_ORGANIZATION_ROLE ( 'design_owner' ) ;
#11 = DIRECTION ( 'NONE',  ( 0.0000000000000000000, -1.000000000000000000, 0.0000000000000000000 ) ) ;
#12 = PRODUCT_DEFINITION_SHAPE ( 'NONE', 'NONE',  #107 ) ;
#13 = APPLICATION_CONTEXT ( 'configuration controlled 3d designs of mechanical parts and assemblies' ) ;
#14 = ADVANCED_BREP_SHAPE_REPRESENTATION ( '34973', ( #6, #85, #154 ), #131 ) ;
#15 = TOROIDAL_SURFACE ( 'NONE', #114, 9.900000000000000355, 8.000000000000000000 ) ;
#16 = LOCAL_TIME ( 7, 57, 4.000000000000000000, #100 ) ;
#17 = ADVANCED_FACE ( 'NONE', ( #204, #58 ), #15, .F. ) ;
#18 = CARTESIAN_POINT ( 'NONE',  ( 2.793185071074506684E-14, 2.249639673992785317E-32, 8.000000000000000000 ) ) ;
#19 = DIRECTION ( 'NONE',  ( 3.491481338843133355E-15, -0.0000000000000000000, 1.000000000000000000 ) ) ;
#20 = CLOSED_SHELL ( 'NONE', ( #183, #36, #165, #17, #129 ) ) ;
#21 = CARTESIAN_POINT ( 'NONE',  ( -6.413747168845438786E-31, 2.249639673992786412E-32, -1.836970198721029934E-16 ) ) ;
#22 = ORIENTED_EDGE ( 'NONE', *, *, #96, .T. ) ;
#23 = ORIENTED_EDGE ( 'NONE', *, *, #148, .F. ) ;
#24 = VERTEX_POINT ( 'NONE', #98 ) ;
#25 = CIRCLE ( 'NONE', #5, 1.899999999999998357 ) ;
#26 = CALENDAR_DATE ( 2021, 12, 11 ) ;
#27 = DIRECTION ( 'NONE',  ( -3.491481338843133355E-15, 1.224646799147353207E-16, -1.000000000000000000 ) ) ;
#28 = PERSON ( 'UNSPECIFIED', 'UNSPECIFIED', 'UNSPECIFIED', ('UNSPECIFIED'), ('UNSPECIFIED'), ('UNSPECIFIED') ) ;
#29 = SHAPE_DEFINITION_REPRESENTATION ( #12, #14 ) ;
#30 = AXIS2_PLACEMENT_3D ( 'NONE', #209, #27, #82 ) ;
#31 = PERSON_AND_ORGANIZATION ( #28, #53 ) ;
#32 = DIRECTION ( 'NONE',  ( 0.0000000000000000000, 1.000000000000000000, 0.0000000000000000000 ) ) ;
#33 = PRODUCT ( '34973', '34973', '', ( #67 ) ) ;
#34 = ADVANCED_FACE ( 'NONE', ( #41 ), #185, .T. ) ;
#35 =( NAMED_UNIT ( * ) PLANE_ANGLE_UNIT ( ) SI_UNIT ( $, .RADIAN. ) );
#36 = ADVANCED_FACE ( 'NONE', ( #221, #93 ), #190, .T. ) ;
#37 = AXIS2_PLACEMENT_3D ( 'NONE', #232, #68, #198 ) ;
#38 = ORIENTED_EDGE ( 'NONE', *, *, #147, .T. ) ;
#39 = CARTESIAN_POINT ( 'NONE',  ( 2.793185071074506684E-14, -9.787180665453984414E-16, 8.000000000000000000 ) ) ;
#40 = FACE_OUTER_BOUND ( 'NONE', #134, .T. ) ;
#41 = FACE_OUTER_BOUND ( 'NONE', #187, .T. ) ;
#42 = CONICAL_SURFACE ( 'NONE', #57, 1.899999999999999911, 0.7853981633974506105 ) ;
#43 = EDGE_LOOP ( 'NONE', ( #59 ) ) ;
#44 = UNCERTAINTY_MEASURE_WITH_UNIT (LENGTH_MEASURE( 1.000000000000000082E-05 ), #236, 'distance_accuracy_value', 'NONE');
#45 = FACE_OUTER_BOUND ( 'NONE', #168, .T. ) ;
#46 = VERTEX_POINT ( 'NONE', #137 ) ;
#47 = CALENDAR_DATE ( 2021, 12, 11 ) ;
#48 = PERSON_AND_ORGANIZATION_ROLE ( 'creator' ) ;
#49 = CARTESIAN_POINT ( 'NONE',  ( 1.745740669421566678E-13, -6.123233995736766085E-15, 50.00000000000000000 ) ) ;
#50 = APPROVAL ( #161, 'UNSPECIFIED' ) ;
#51 = DATE_AND_TIME ( #47, #184 ) ;
#52 = PERSON_AND_ORGANIZATION ( #28, #53 ) ;
#53 = ORGANIZATION ( 'UNSPECIFIED', 'UNSPECIFIED', '' ) ;
#54 = PERSON_AND_ORGANIZATION ( #28, #53 ) ;
#55 = DIRECTION ( 'NONE',  ( -3.491481338843133355E-15, 1.224646799147353207E-16, -1.000000000000000000 ) ) ;
#56 = CC_DESIGN_PERSON_AND_ORGANIZATION_ASSIGNMENT ( #193, #106, ( #107 ) ) ;
#57 = AXIS2_PLACEMENT_3D ( 'NONE', #210, #101, #122 ) ;
#58 = FACE_OUTER_BOUND ( 'NONE', #43, .T. ) ;
#59 = ORIENTED_EDGE ( 'NONE', *, *, #87, .T. ) ;
#60 = EDGE_LOOP ( 'NONE', ( #76 ) ) ;
#61 = AXIS2_PLACEMENT_3D ( 'NONE', #220, #116, #241 ) ;
#62 = VERTEX_POINT ( 'NONE', #164 ) ;
#63 = DIRECTION ( 'NONE',  ( -4.271469831664863477E-31, -1.000000000000000000, -1.223397583181748298E-16 ) ) ;
#64 = APPROVAL_ROLE ( '' ) ;
#65 = DATE_AND_TIME ( #8, #182 ) ;
#66 = CC_DESIGN_DATE_AND_TIME_ASSIGNMENT ( #207, #175, ( #107 ) ) ;
#67 = MECHANICAL_CONTEXT ( 'NONE', #13, 'mechanical' ) ;
#68 = DIRECTION ( 'NONE',  ( 3.491481338843133355E-15, -0.0000000000000000000, 1.000000000000000000 ) ) ;
#69 = SECURITY_CLASSIFICATION ( '', '', #157 ) ;
#70 = CIRCLE ( 'NONE', #135, 1.899999999999998357 ) ;
#71 = EDGE_LOOP ( 'NONE', ( #237 ) ) ;
#72 = ORIENTED_EDGE ( 'NONE', *, *, #96, .F. ) ;
#73 = DIRECTION ( 'NONE',  ( -4.330811271672147318E-31, -1.000000000000000000, -1.223397583181748052E-16 ) ) ;
#74 = CARTESIAN_POINT ( 'NONE',  ( 1.724791781388508004E-13, 2.999999999999995559, 49.39999999999999858 ) ) ;
#75 = CYLINDRICAL_SURFACE ( 'NONE', #203, 1.899999999999999023 ) ;
#76 = ORIENTED_EDGE ( 'NONE', *, *, #87, .F. ) ;
#77 = CC_DESIGN_PERSON_AND_ORGANIZATION_ASSIGNMENT ( #83, #84, ( #69 ) ) ;
#78 = CC_DESIGN_APPROVAL ( #141, ( #107 ) ) ;
#79 = PERSON_AND_ORGANIZATION ( #28, #53 ) ;
#80 = CLOSED_SHELL ( 'NONE', ( #222, #34, #166, #126 ) ) ;
#81 = APPROVAL_PERSON_ORGANIZATION ( #192, #94, #195 ) ;
#82 = DIRECTION ( 'NONE',  ( 4.275831445896958607E-31, 1.000000000000000000, 1.224646799147353207E-16 ) ) ;
#83 = PERSON_AND_ORGANIZATION ( #28, #53 ) ;
#84 = PERSON_AND_ORGANIZATION_ROLE ( 'classification_officer' ) ;
#85 = MANIFOLD_SOLID_BREP ( 'Corps-Déplacer/Copier1[2]', #80 ) ;
#86 = DIRECTION ( 'NONE',  ( 3.491481338843133355E-15, -1.223397583181748052E-16, 1.000000000000000000 ) ) ;
#87 = EDGE_CURVE ( 'NONE', #24, #24, #70, .T. ) ;
#88 = CC_DESIGN_APPROVAL ( #50, ( #199 ) ) ;
#89 = DIRECTION ( 'NONE',  ( 3.491481338843133355E-15, -1.224646799147353207E-16, 1.000000000000000000 ) ) ;
#90 = EDGE_LOOP ( 'NONE', ( #97 ) ) ;
#91 = CC_DESIGN_APPROVAL ( #94, ( #69 ) ) ;
#92 = DIRECTION ( 'NONE',  ( -3.491481338843133355E-15, 1.224646799147353207E-16, -1.000000000000000000 ) ) ;
#93 = FACE_OUTER_BOUND ( 'NONE', #155, .T. ) ;
#94 = APPROVAL ( #104, 'UNSPECIFIED' ) ;
#95 = FACE_OUTER_BOUND ( 'NONE', #136, .T. ) ;
#96 = EDGE_CURVE ( 'NONE', #46, #46, #211, .T. ) ;
#97 = ORIENTED_EDGE ( 'NONE', *, *, #160, .F. ) ;
#98 = CARTESIAN_POINT ( 'NONE',  ( 2.793185071074506684E-14, -1.899999999999999245, 8.000000000000000000 ) ) ;
#99 = APPROVAL_PERSON_ORGANIZATION ( #52, #141, #64 ) ;
#100 = COORDINATED_UNIVERSAL_TIME_OFFSET ( 1, 0, .AHEAD. ) ;
#101 = DIRECTION ( 'NONE',  ( 3.491481338843133355E-15, -0.0000000000000000000, 1.000000000000000000 ) ) ;
#102 = COORDINATED_UNIVERSAL_TIME_OFFSET ( 1, 0, .AHEAD. ) ;
#103 = PLANE ( 'NONE',  #30 ) ;
#104 = APPROVAL_STATUS ( 'not_yet_approved' ) ;
#105 = CIRCLE ( 'NONE', #37, 1.899999999999999911 ) ;
#106 = PERSON_AND_ORGANIZATION_ROLE ( 'creator' ) ;
#107 = PRODUCT_DEFINITION ( 'UNKNOWN', '', #199, #189 ) ;
#108 = COORDINATED_UNIVERSAL_TIME_OFFSET ( 1, 0, .AHEAD. ) ;
#109 = DIRECTION ( 'NONE',  ( 3.491481338843133355E-15, -1.224646799147353207E-16, 1.000000000000000000 ) ) ;
#110 = AXIS2_PLACEMENT_3D ( 'NONE', #169, #19, #238 ) ;
#111 = DIRECTION ( 'NONE',  ( 3.491481338843133355E-15, -1.223397583181748052E-16, 1.000000000000000000 ) ) ;
#112 = DIRECTION ( 'NONE',  ( 3.491481338843133355E-15, -1.223397583181748052E-16, 1.000000000000000000 ) ) ;
#113 = PLANE ( 'NONE',  #233 ) ;
#114 = AXIS2_PLACEMENT_3D ( 'NONE', #117, #111, #73 ) ;
#115 = CIRCLE ( 'NONE', #125, 3.000000000000001776 ) ;
#116 = DIRECTION ( 'NONE',  ( -3.491481338843133355E-15, 1.224646799147353207E-16, -1.000000000000000000 ) ) ;
#117 = CARTESIAN_POINT ( 'NONE',  ( 2.793185071074506053E-14, -1.734723475976807094E-15, 7.999999999999998224 ) ) ;
#118 = FACE_OUTER_BOUND ( 'NONE', #225, .T. ) ;
#119 = APPLICATION_CONTEXT ( 'configuration controlled 3d designs of mechanical parts and assemblies' ) ;
#120 = VERTEX_POINT ( 'NONE', #152 ) ;
#121 = CARTESIAN_POINT ( 'NONE',  ( 0.0000000000000000000, 0.0000000000000000000, 0.0000000000000000000 ) ) ;
#122 = DIRECTION ( 'NONE',  ( 1.000000000000000000, 0.0000000000000000000, -3.487992515430340234E-15 ) ) ;
#123 = FACE_BOUND ( 'NONE', #240, .T. ) ;
#124 = APPROVAL_DATE_TIME ( #143, #94 ) ;
#125 = AXIS2_PLACEMENT_3D ( 'NONE', #213, #55, #32 ) ;
#126 = ADVANCED_FACE ( 'NONE', ( #40 ), #113, .T. ) ;
#127 = FACE_OUTER_BOUND ( 'NONE', #60, .T. ) ;
#128 = DIRECTION ( 'NONE',  ( 3.491481338843133355E-15, -1.223397583181748052E-16, 1.000000000000000000 ) ) ;
#129 = ADVANCED_FACE ( 'NONE', ( #127 ), #145, .F. ) ;
#130 =( NAMED_UNIT ( * ) SI_UNIT ( $, .STERADIAN. ) SOLID_ANGLE_UNIT ( ) );
#131 =( GEOMETRIC_REPRESENTATION_CONTEXT ( 3 ) GLOBAL_UNCERTAINTY_ASSIGNED_CONTEXT ( ( #44 ) ) GLOBAL_UNIT_ASSIGNED_CONTEXT ( ( #236, #35, #130 ) ) REPRESENTATION_CONTEXT ( 'NONE', 'WORKASPACE' ) );
#132 = DIRECTION ( 'NONE',  ( 0.0000000000000000000, 1.000000000000000000, 0.0000000000000000000 ) ) ;
#133 = DIRECTION ( 'NONE',  ( -3.491481338843133355E-15, 1.224646799147353207E-16, -1.000000000000000000 ) ) ;
#134 = EDGE_LOOP ( 'NONE', ( #72 ) ) ;
#135 = AXIS2_PLACEMENT_3D ( 'NONE', #39, #112, #186 ) ;
#136 = EDGE_LOOP ( 'NONE', ( #219 ) ) ;
#137 = CARTESIAN_POINT ( 'NONE',  ( 1.799999999999999600, 0.0000000000000000000, -6.298218937073707267E-15 ) ) ;
#138 = APPROVAL_DATE_TIME ( #51, #141 ) ;
#139 = DATE_TIME_ROLE ( 'classification_date' ) ;
#140 = FACE_OUTER_BOUND ( 'NONE', #71, .T. ) ;
#141 = APPROVAL ( #226, 'UNSPECIFIED' ) ;
#142 = EDGE_CURVE ( 'NONE', #223, #223, #105, .T. ) ;
#143 = DATE_AND_TIME ( #208, #216 ) ;
#144 = CARTESIAN_POINT ( 'NONE',  ( 2.793185071074506684E-14, -9.787180665453984414E-16, 8.000000000000000000 ) ) ;
#145 = PLANE ( 'NONE',  #163 ) ;
#146 = AXIS2_PLACEMENT_3D ( 'NONE', #181, #86, #177 ) ;
#147 = EDGE_CURVE ( 'NONE', #156, #156, #25, .T. ) ;
#148 = EDGE_CURVE ( 'NONE', #174, #174, #115, .T. ) ;
#149 = ORIENTED_EDGE ( 'NONE', *, *, #171, .F. ) ;
#150 = CC_DESIGN_DATE_AND_TIME_ASSIGNMENT ( #65, #139, ( #69 ) ) ;
#151 = AXIS2_PLACEMENT_3D ( 'NONE', #18, #89, #201 ) ;
#152 = CARTESIAN_POINT ( 'NONE',  ( 4.206696101764533750E-14, 2.999999999999998668, 12.04845649599942981 ) ) ;
#153 = CARTESIAN_POINT ( 'NONE',  ( 0.0000000000000000000, 0.0000000000000000000, 0.0000000000000000000 ) ) ;
#154 = AXIS2_PLACEMENT_3D ( 'NONE', #121, #196, #180 ) ;
#155 = EDGE_LOOP ( 'NONE', ( #23 ) ) ;
#156 = VERTEX_POINT ( 'NONE', #243 ) ;
#157 = SECURITY_CLASSIFICATION_LEVEL ( 'unclassified' ) ;
#158 = PERSON_AND_ORGANIZATION_ROLE ( 'design_supplier' ) ;
#159 = DIRECTION ( 'NONE',  ( 0.0000000000000000000, 1.000000000000000000, 0.0000000000000000000 ) ) ;
#160 = EDGE_CURVE ( 'NONE', #120, #120, #162, .T. ) ;
#161 = APPROVAL_STATUS ( 'not_yet_approved' ) ;
#162 = CIRCLE ( 'NONE', #146, 3.000000000000000888 ) ;
#163 = AXIS2_PLACEMENT_3D ( 'NONE', #9, #109, #197 ) ;
#164 = CARTESIAN_POINT ( 'NONE',  ( 1.745740669421566678E-13, 2.399999999999995914, 50.00000000000000000 ) ) ;
#165 = ADVANCED_FACE ( 'NONE', ( #3 ), #103, .F. ) ;
#166 = ADVANCED_FACE ( 'NONE', ( #123, #140 ), #42, .T. ) ;
#167 = CARTESIAN_POINT ( 'NONE',  ( 1.724791781388508004E-13, -6.049755187787925154E-15, 49.39999999999999858 ) ) ;
#168 = EDGE_LOOP ( 'NONE', ( #217 ) ) ;
#169 = CARTESIAN_POINT ( 'NONE',  ( -4.731839565957903391E-32, 0.0000000000000000000, -1.355252715606880543E-17 ) ) ;
#170 = EDGE_LOOP ( 'NONE', ( #242 ) ) ;
#171 = EDGE_CURVE ( 'NONE', #62, #62, #235, .T. ) ;
#172 = LOCAL_TIME ( 7, 57, 4.000000000000000000, #108 ) ;
#173 = CC_DESIGN_PERSON_AND_ORGANIZATION_ASSIGNMENT ( #79, #158, ( #199 ) ) ;
#174 = VERTEX_POINT ( 'NONE', #74 ) ;
#175 = DATE_TIME_ROLE ( 'creation_date' ) ;
#176 = PERSON_AND_ORGANIZATION ( #28, #53 ) ;
#177 = DIRECTION ( 'NONE',  ( 0.0000000000000000000, 1.000000000000000000, 0.0000000000000000000 ) ) ;
#178 = AXIS2_PLACEMENT_3D ( 'NONE', #49, #2, #159 ) ;
#179 = APPROVAL_ROLE ( '' ) ;
#180 = DIRECTION ( 'NONE',  ( 1.000000000000000000, 0.0000000000000000000, 0.0000000000000000000 ) ) ;
#181 = CARTESIAN_POINT ( 'NONE',  ( 4.206696101764533750E-14, -2.230010665259022479E-15, 12.04845649599942981 ) ) ;
#182 = LOCAL_TIME ( 7, 57, 4.000000000000000000, #227 ) ;
#183 = ADVANCED_FACE ( 'NONE', ( #228, #95 ), #206, .T. ) ;
#184 = LOCAL_TIME ( 7, 57, 4.000000000000000000, #102 ) ;
#185 = PLANE ( 'NONE',  #151 ) ;
#186 = DIRECTION ( 'NONE',  ( 0.0000000000000000000, -1.000000000000000000, 0.0000000000000000000 ) ) ;
#187 = EDGE_LOOP ( 'NONE', ( #38 ) ) ;
#188 = ORIENTED_EDGE ( 'NONE', *, *, #148, .T. ) ;
#189 = DESIGN_CONTEXT ( 'detailed design', #119, 'design' ) ;
#190 = CONICAL_SURFACE ( 'NONE', #194, 3.000000000000001776, 0.7853981633974453924 ) ;
#191 = APPLICATION_PROTOCOL_DEFINITION ( 'international standard', 'config_control_design', 1994, #119 ) ;
#192 = PERSON_AND_ORGANIZATION ( #28, #53 ) ;
#193 = PERSON_AND_ORGANIZATION ( #28, #53 ) ;
#194 = AXIS2_PLACEMENT_3D ( 'NONE', #167, #133, #132 ) ;
#195 = APPROVAL_ROLE ( '' ) ;
#196 = DIRECTION ( 'NONE',  ( 0.0000000000000000000, 0.0000000000000000000, 1.000000000000000000 ) ) ;
#197 = DIRECTION ( 'NONE',  ( -4.275831445896958607E-31, -1.000000000000000000, -1.224646799147353207E-16 ) ) ;
#198 = DIRECTION ( 'NONE',  ( 1.000000000000000000, 0.0000000000000000000, -3.487992515430340234E-15 ) ) ;
#199 = PRODUCT_DEFINITION_FORMATION_WITH_SPECIFIED_SOURCE ( 'ANY', '', #33, .NOT_KNOWN. ) ;
#200 = EDGE_LOOP ( 'NONE', ( #188 ) ) ;
#201 = DIRECTION ( 'NONE',  ( -4.275831445896958607E-31, -1.000000000000000000, -1.224646799147353207E-16 ) ) ;
#202 = EDGE_LOOP ( 'NONE', ( #149 ) ) ;
#203 = AXIS2_PLACEMENT_3D ( 'NONE', #153, #224, #63 ) ;
#204 = FACE_OUTER_BOUND ( 'NONE', #90, .T. ) ;
#205 = CARTESIAN_POINT ( 'NONE',  ( 1.900000000000000355, 0.0000000000000000000, 0.09999999999999337197 ) ) ;
#206 = CYLINDRICAL_SURFACE ( 'NONE', #61, 3.000000000000000888 ) ;
#207 = DATE_AND_TIME ( #26, #172 ) ;
#208 = CALENDAR_DATE ( 2021, 12, 11 ) ;
#209 = CARTESIAN_POINT ( 'NONE',  ( 1.745740669421566678E-13, 1.799711739194221740E-32, 50.00000000000000000 ) ) ;
#210 = CARTESIAN_POINT ( 'NONE',  ( 3.491481338843133355E-16, 0.0000000000000000000, 0.1000000000000000056 ) ) ;
#211 = CIRCLE ( 'NONE', #110, 1.799999999999999600 ) ;
#212 = DATE_AND_TIME ( #1, #16 ) ;
#213 = CARTESIAN_POINT ( 'NONE',  ( 1.724791781388508004E-13, -6.049755187787925154E-15, 49.39999999999999858 ) ) ;
#214 = CC_DESIGN_PERSON_AND_ORGANIZATION_ASSIGNMENT ( #31, #10, ( #33 ) ) ;
#215 = PRODUCT_RELATED_PRODUCT_CATEGORY ( 'detail', '', ( #33 ) ) ;
#216 = LOCAL_TIME ( 7, 57, 4.000000000000000000, #229 ) ;
#217 = ORIENTED_EDGE ( 'NONE', *, *, #147, .F. ) ;
#218 = ORIENTED_EDGE ( 'NONE', *, *, #142, .T. ) ;
#219 = ORIENTED_EDGE ( 'NONE', *, *, #160, .T. ) ;
#220 = CARTESIAN_POINT ( 'NONE',  ( 0.0000000000000000000, 0.0000000000000000000, 0.0000000000000000000 ) ) ;
#221 = FACE_BOUND ( 'NONE', #170, .T. ) ;
#222 = ADVANCED_FACE ( 'NONE', ( #45, #118 ), #75, .T. ) ;
#223 = VERTEX_POINT ( 'NONE', #205 ) ;
#224 = DIRECTION ( 'NONE',  ( 3.491481338843133355E-15, -1.223397583181748052E-16, 1.000000000000000000 ) ) ;
#225 = EDGE_LOOP ( 'NONE', ( #218 ) ) ;
#226 = APPROVAL_STATUS ( 'not_yet_approved' ) ;
#227 = COORDINATED_UNIVERSAL_TIME_OFFSET ( 1, 0, .AHEAD. ) ;
#228 = FACE_OUTER_BOUND ( 'NONE', #200, .T. ) ;
#229 = COORDINATED_UNIVERSAL_TIME_OFFSET ( 1, 0, .AHEAD. ) ;
#230 = APPLICATION_PROTOCOL_DEFINITION ( 'international standard', 'config_control_design', 1994, #13 ) ;
#231 = APPROVAL_DATE_TIME ( #212, #50 ) ;
#232 = CARTESIAN_POINT ( 'NONE',  ( 3.491481338843133355E-16, 0.0000000000000000000, 0.1000000000000000056 ) ) ;
#233 = AXIS2_PLACEMENT_3D ( 'NONE', #21, #92, #234 ) ;
#234 = DIRECTION ( 'NONE',  ( 4.275831445896958607E-31, 1.000000000000000000, 1.224646799147353207E-16 ) ) ;
#235 = CIRCLE ( 'NONE', #178, 2.400000000000002132 ) ;
#236 =( LENGTH_UNIT ( ) NAMED_UNIT ( * ) SI_UNIT ( .MILLI., .METRE. ) );
#237 = ORIENTED_EDGE ( 'NONE', *, *, #142, .F. ) ;
#238 = DIRECTION ( 'NONE',  ( 1.000000000000000000, 0.0000000000000000000, -3.491481338843133355E-15 ) ) ;
#239 = APPROVAL_PERSON_ORGANIZATION ( #176, #50, #179 ) ;
#240 = EDGE_LOOP ( 'NONE', ( #22 ) ) ;
#241 = DIRECTION ( 'NONE',  ( 4.275831445896958607E-31, 1.000000000000000000, 1.224646799147353207E-16 ) ) ;
#242 = ORIENTED_EDGE ( 'NONE', *, *, #171, .T. ) ;
#243 = CARTESIAN_POINT ( 'NONE',  ( 2.793185071074506684E-14, -1.899999999999999245, 8.000000000000000000 ) ) ;
ENDSEC;
END-ISO-10303-21;
