ISO-10303-21;
HEADER;
FILE_DESCRIPTION (( 'STEP AP203' ),
    '1' );
FILE_NAME ('34954.step',
    '2021-12-06T12:59:01',
    ( '' ),
    ( '' ),
    'SwSTEP 2.0',
    'SolidWorks 2019',
    '' );
FILE_SCHEMA (( 'CONFIG_CONTROL_DESIGN' ));
ENDSEC;

DATA;
#1 = ORIENTED_EDGE ( 'NONE', *, *, #6, .F. ) ;
#2 = FACE_OUTER_BOUND ( 'NONE', #87, .T. ) ;
#3 = CC_DESIGN_DATE_AND_TIME_ASSIGNMENT ( #49, #96, ( #85 ) ) ;
#4 = DIRECTION ( 'NONE',  ( -3.491481338843133355E-15, 1.224646799147353207E-16, -1.000000000000000000 ) ) ;
#5 = CIRCLE ( 'NONE', #108, 11.00000000000000000 ) ;
#6 = EDGE_CURVE ( 'NONE', #14, #14, #81, .T. ) ;
#7 = APPLICATION_PROTOCOL_DEFINITION ( 'international standard', 'config_control_design', 1994, #56 ) ;
#8 = CALENDAR_DATE ( 2021, 6, 12 ) ;
#9 = PERSON_AND_ORGANIZATION ( #147, #102 ) ;
#10 = SHAPE_DEFINITION_REPRESENTATION ( #126, #39 ) ;
#11 = DIRECTION ( 'NONE',  ( -4.275831445896958607E-31, -1.000000000000000000, -1.224646799147353207E-16 ) ) ;
#12 = PRODUCT ( '34954', '34954', '', ( #165 ) ) ;
#13 = CIRCLE ( 'NONE', #78, 62.50000000000000000 ) ;
#14 = VERTEX_POINT ( 'NONE', #25 ) ;
#15 = DIRECTION ( 'NONE',  ( 4.275831445896958607E-31, 1.000000000000000000, 1.224646799147353207E-16 ) ) ;
#16 = CC_DESIGN_APPROVAL ( #160, ( #85 ) ) ;
#17 = CYLINDRICAL_SURFACE ( 'NONE', #24, 11.00000000000000000 ) ;
#18 = CARTESIAN_POINT ( 'NONE',  ( -4.703414590486653942E-30, 1.649735760928043369E-31, -1.347111479062088405E-15 ) ) ;
#19 = PRODUCT_DEFINITION ( 'UNKNOWN', '', #45, #28 ) ;
#20 = AXIS2_PLACEMENT_3D ( 'NONE', #37, #139, #153 ) ;
#21 = CALENDAR_DATE ( 2021, 6, 12 ) ;
#22 = APPROVAL_ROLE ( '' ) ;
#23 = PERSON_AND_ORGANIZATION_ROLE ( 'creator' ) ;
#24 = AXIS2_PLACEMENT_3D ( 'NONE', #105, #4, #169 ) ;
#25 = CARTESIAN_POINT ( 'NONE',  ( 0.0000000000000000000, 62.50000000000000000, 0.0000000000000000000 ) ) ;
#26 = EDGE_LOOP ( 'NONE', ( #158 ) ) ;
#27 = AXIS2_PLACEMENT_3D ( 'NONE', #141, #118, #15 ) ;
#28 = DESIGN_CONTEXT ( 'detailed design', #56, 'design' ) ;
#29 = DIRECTION ( 'NONE',  ( 4.314083075427408311E-31, 1.000000000000000000, 1.214306433183764966E-16 ) ) ;
#30 = ADVANCED_FACE ( 'NONE', ( #2, #38 ), #116, .T. ) ;
#31 = DATE_AND_TIME ( #80, #64 ) ;
#32 = PERSON_AND_ORGANIZATION_ROLE ( 'design_owner' ) ;
#33 = CARTESIAN_POINT ( 'NONE',  ( 0.0000000000000000000, 0.0000000000000000000, 0.0000000000000000000 ) ) ;
#34 = DATE_AND_TIME ( #47, #161 ) ;
#35 = APPROVAL_STATUS ( 'not_yet_approved' ) ;
#36 = DIRECTION ( 'NONE',  ( 3.491481338843133355E-15, -1.224646799147353207E-16, 1.000000000000000000 ) ) ;
#37 = CARTESIAN_POINT ( 'NONE',  ( -1.101026597318466846E-29, 11.00000000000000000, -3.153465507804434404E-15 ) ) ;
#38 = FACE_OUTER_BOUND ( 'NONE', #103, .T. ) ;
#39 = ADVANCED_BREP_SHAPE_REPRESENTATION ( '34954', ( #128, #145 ), #130 ) ;
#40 = PLANE ( 'NONE',  #79 ) ;
#41 = CARTESIAN_POINT ( 'NONE',  ( 5.237222008264674001E-15, -1.836970198721020566E-16, 1.499999999999992450 ) ) ;
#42 = CC_DESIGN_PERSON_AND_ORGANIZATION_ASSIGNMENT ( #163, #23, ( #19 ) ) ;
#43 = ORIENTED_EDGE ( 'NONE', *, *, #51, .T. ) ;
#44 = AXIS2_PLACEMENT_3D ( 'NONE', #90, #99, #152 ) ;
#45 = PRODUCT_DEFINITION_FORMATION_WITH_SPECIFIED_SOURCE ( 'ANY', '', #12, .NOT_KNOWN. ) ;
#46 = EDGE_CURVE ( 'NONE', #112, #112, #13, .T. ) ;
#47 = CALENDAR_DATE ( 2021, 6, 12 ) ;
#48 = PERSON_AND_ORGANIZATION ( #147, #102 ) ;
#49 = DATE_AND_TIME ( #21, #144 ) ;
#50 = VERTEX_POINT ( 'NONE', #88 ) ;
#51 = EDGE_CURVE ( 'NONE', #72, #72, #5, .T. ) ;
#52 = ORIENTED_EDGE ( 'NONE', *, *, #164, .T. ) ;
#53 = FACE_OUTER_BOUND ( 'NONE', #138, .T. ) ;
#54 = FACE_OUTER_BOUND ( 'NONE', #26, .T. ) ;
#55 = CC_DESIGN_APPROVAL ( #109, ( #45 ) ) ;
#56 = APPLICATION_CONTEXT ( 'configuration controlled 3d designs of mechanical parts and assemblies' ) ;
#57 = CC_DESIGN_PERSON_AND_ORGANIZATION_ASSIGNMENT ( #48, #71, ( #85 ) ) ;
#58 = APPROVAL_DATE_TIME ( #146, #133 ) ;
#59 = APPROVAL_ROLE ( '' ) ;
#60 = APPROVAL_DATE_TIME ( #86, #160 ) ;
#61 = SECURITY_CLASSIFICATION_LEVEL ( 'unclassified' ) ;
#62 = ADVANCED_FACE ( 'NONE', ( #129, #53 ), #17, .F. ) ;
#63 = PLANE ( 'NONE',  #20 ) ;
#64 = LOCAL_TIME ( 13, 59, 1.000000000000000000, #82 ) ;
#65 = EDGE_LOOP ( 'NONE', ( #75 ) ) ;
#66 =( NAMED_UNIT ( * ) SI_UNIT ( $, .STERADIAN. ) SOLID_ANGLE_UNIT ( ) );
#67 = CC_DESIGN_SECURITY_CLASSIFICATION ( #85, ( #45 ) ) ;
#68 = APPLICATION_PROTOCOL_DEFINITION ( 'international standard', 'config_control_design', 1994, #132 ) ;
#69 = APPROVAL_ROLE ( '' ) ;
#70 = APPROVAL_STATUS ( 'not_yet_approved' ) ;
#71 = PERSON_AND_ORGANIZATION_ROLE ( 'classification_officer' ) ;
#72 = VERTEX_POINT ( 'NONE', #167 ) ;
#73 = APPROVAL_PERSON_ORGANIZATION ( #9, #160, #69 ) ;
#74 =( NAMED_UNIT ( * ) PLANE_ANGLE_UNIT ( ) SI_UNIT ( $, .RADIAN. ) );
#75 = ORIENTED_EDGE ( 'NONE', *, *, #51, .F. ) ;
#76 = ADVANCED_FACE ( 'NONE', ( #54, #92 ), #63, .T. ) ;
#77 = DIRECTION ( 'NONE',  ( 4.275831445896957731E-31, 1.000000000000000000, 1.224646799147353207E-16 ) ) ;
#78 = AXIS2_PLACEMENT_3D ( 'NONE', #41, #140, #29 ) ;
#79 = AXIS2_PLACEMENT_3D ( 'NONE', #150, #36, #11 ) ;
#80 = CALENDAR_DATE ( 2021, 6, 12 ) ;
#81 = CIRCLE ( 'NONE', #27, 62.50000000000000000 ) ;
#82 = COORDINATED_UNIVERSAL_TIME_OFFSET ( 1, 0, .AHEAD. ) ;
#83 = DIRECTION ( 'NONE',  ( 0.0000000000000000000, 0.0000000000000000000, 1.000000000000000000 ) ) ;
#84 = DATE_TIME_ROLE ( 'creation_date' ) ;
#85 = SECURITY_CLASSIFICATION ( '', '', #61 ) ;
#86 = DATE_AND_TIME ( #121, #154 ) ;
#87 = EDGE_LOOP ( 'NONE', ( #91 ) ) ;
#88 = CARTESIAN_POINT ( 'NONE',  ( 5.237222008264700033E-15, 11.00000000000000000, 1.500000000000000000 ) ) ;
#89 = EDGE_LOOP ( 'NONE', ( #157 ) ) ;
#90 = CARTESIAN_POINT ( 'NONE',  ( 0.0000000000000000000, 0.0000000000000000000, 0.0000000000000000000 ) ) ;
#91 = ORIENTED_EDGE ( 'NONE', *, *, #46, .T. ) ;
#92 = FACE_BOUND ( 'NONE', #65, .T. ) ;
#93 = PERSON_AND_ORGANIZATION ( #147, #102 ) ;
#94 = COORDINATED_UNIVERSAL_TIME_OFFSET ( 1, 0, .AHEAD. ) ;
#95 = COORDINATED_UNIVERSAL_TIME_OFFSET ( 1, 0, .AHEAD. ) ;
#96 = DATE_TIME_ROLE ( 'classification_date' ) ;
#97 = COORDINATED_UNIVERSAL_TIME_OFFSET ( 1, 0, .AHEAD. ) ;
#98 = FACE_OUTER_BOUND ( 'NONE', #89, .T. ) ;
#99 = DIRECTION ( 'NONE',  ( -3.491481338843133355E-15, 1.224646799147353207E-16, -1.000000000000000000 ) ) ;
#100 = FACE_BOUND ( 'NONE', #101, .T. ) ;
#101 = EDGE_LOOP ( 'NONE', ( #52 ) ) ;
#102 = ORGANIZATION ( 'UNSPECIFIED', 'UNSPECIFIED', '' ) ;
#103 = EDGE_LOOP ( 'NONE', ( #1 ) ) ;
#104 = CC_DESIGN_PERSON_AND_ORGANIZATION_ASSIGNMENT ( #122, #32, ( #12 ) ) ;
#105 = CARTESIAN_POINT ( 'NONE',  ( 0.0000000000000000000, 0.0000000000000000000, 0.0000000000000000000 ) ) ;
#106 = CIRCLE ( 'NONE', #117, 11.00000000000000000 ) ;
#107 = ADVANCED_FACE ( 'NONE', ( #100, #98 ), #40, .T. ) ;
#108 = AXIS2_PLACEMENT_3D ( 'NONE', #18, #119, #77 ) ;
#109 = APPROVAL ( #35, 'UNSPECIFIED' ) ;
#110 = APPROVAL_DATE_TIME ( #31, #109 ) ;
#111 = COORDINATED_UNIVERSAL_TIME_OFFSET ( 1, 0, .AHEAD. ) ;
#112 = VERTEX_POINT ( 'NONE', #166 ) ;
#113 = CC_DESIGN_APPROVAL ( #133, ( #19 ) ) ;
#114 = CC_DESIGN_PERSON_AND_ORGANIZATION_ASSIGNMENT ( #162, #131, ( #45 ) ) ;
#115 = CARTESIAN_POINT ( 'NONE',  ( 5.237222008264695300E-15, -1.836970198721028208E-16, 1.499999999999998668 ) ) ;
#116 = CYLINDRICAL_SURFACE ( 'NONE', #44, 62.50000000000000000 ) ;
#117 = AXIS2_PLACEMENT_3D ( 'NONE', #115, #137, #125 ) ;
#118 = DIRECTION ( 'NONE',  ( -3.491481338843133355E-15, 1.224646799147353207E-16, -1.000000000000000000 ) ) ;
#119 = DIRECTION ( 'NONE',  ( -3.491481338843133355E-15, 1.224646799147353207E-16, -1.000000000000000000 ) ) ;
#120 = APPROVAL_PERSON_ORGANIZATION ( #134, #109, #59 ) ;
#121 = CALENDAR_DATE ( 2021, 6, 12 ) ;
#122 = PERSON_AND_ORGANIZATION ( #147, #102 ) ;
#123 = CC_DESIGN_PERSON_AND_ORGANIZATION_ASSIGNMENT ( #93, #149, ( #45 ) ) ;
#124 = PERSON_AND_ORGANIZATION ( #147, #102 ) ;
#125 = DIRECTION ( 'NONE',  ( 4.202028969572151271E-31, 1.000000000000000000, 1.182766006347823109E-16 ) ) ;
#126 = PRODUCT_DEFINITION_SHAPE ( 'NONE', 'NONE',  #19 ) ;
#127 = EDGE_LOOP ( 'NONE', ( #43 ) ) ;
#128 = MANIFOLD_SOLID_BREP ( 'Corps-Déplacer/Copier1', #159 ) ;
#129 = FACE_OUTER_BOUND ( 'NONE', #127, .T. ) ;
#130 =( GEOMETRIC_REPRESENTATION_CONTEXT ( 3 ) GLOBAL_UNCERTAINTY_ASSIGNED_CONTEXT ( ( #155 ) ) GLOBAL_UNIT_ASSIGNED_CONTEXT ( ( #151, #74, #66 ) ) REPRESENTATION_CONTEXT ( 'NONE', 'WORKASPACE' ) );
#131 = PERSON_AND_ORGANIZATION_ROLE ( 'creator' ) ;
#132 = APPLICATION_CONTEXT ( 'configuration controlled 3d designs of mechanical parts and assemblies' ) ;
#133 = APPROVAL ( #70, 'UNSPECIFIED' ) ;
#134 = PERSON_AND_ORGANIZATION ( #147, #102 ) ;
#135 = LOCAL_TIME ( 13, 59, 1.000000000000000000, #95 ) ;
#136 = PRODUCT_RELATED_PRODUCT_CATEGORY ( 'detail', '', ( #12 ) ) ;
#137 = DIRECTION ( 'NONE',  ( -3.491481338843133355E-15, 1.224646799147353207E-16, -1.000000000000000000 ) ) ;
#138 = EDGE_LOOP ( 'NONE', ( #168 ) ) ;
#139 = DIRECTION ( 'NONE',  ( -3.491481338843133355E-15, 1.224646799147353207E-16, -1.000000000000000000 ) ) ;
#140 = DIRECTION ( 'NONE',  ( -3.491481338843133355E-15, 1.224646799147353207E-16, -1.000000000000000000 ) ) ;
#141 = CARTESIAN_POINT ( 'NONE',  ( -2.672394653685599366E-29, 9.373498641636609502E-31, -7.654042494670957804E-15 ) ) ;
#142 = APPROVAL_PERSON_ORGANIZATION ( #124, #133, #22 ) ;
#143 = APPROVAL_STATUS ( 'not_yet_approved' ) ;
#144 = LOCAL_TIME ( 13, 59, 1.000000000000000000, #111 ) ;
#145 = AXIS2_PLACEMENT_3D ( 'NONE', #33, #83, #148 ) ;
#146 = DATE_AND_TIME ( #8, #135 ) ;
#147 = PERSON ( 'UNSPECIFIED', 'UNSPECIFIED', 'UNSPECIFIED', ('UNSPECIFIED'), ('UNSPECIFIED'), ('UNSPECIFIED') ) ;
#148 = DIRECTION ( 'NONE',  ( 1.000000000000000000, 0.0000000000000000000, 0.0000000000000000000 ) ) ;
#149 = PERSON_AND_ORGANIZATION_ROLE ( 'design_supplier' ) ;
#150 = CARTESIAN_POINT ( 'NONE',  ( 5.237222008264688989E-15, 11.00000000000000000, 1.499999999999996669 ) ) ;
#151 =( LENGTH_UNIT ( ) NAMED_UNIT ( * ) SI_UNIT ( .MILLI., .METRE. ) );
#152 = DIRECTION ( 'NONE',  ( 4.275831445896958607E-31, 1.000000000000000000, 1.224646799147353207E-16 ) ) ;
#153 = DIRECTION ( 'NONE',  ( 4.275831445896958607E-31, 1.000000000000000000, 1.224646799147353207E-16 ) ) ;
#154 = LOCAL_TIME ( 13, 59, 1.000000000000000000, #94 ) ;
#155 = UNCERTAINTY_MEASURE_WITH_UNIT (LENGTH_MEASURE( 1.000000000000000082E-05 ), #151, 'distance_accuracy_value', 'NONE');
#156 = CC_DESIGN_DATE_AND_TIME_ASSIGNMENT ( #34, #84, ( #19 ) ) ;
#157 = ORIENTED_EDGE ( 'NONE', *, *, #46, .F. ) ;
#158 = ORIENTED_EDGE ( 'NONE', *, *, #6, .T. ) ;
#159 = CLOSED_SHELL ( 'NONE', ( #76, #30, #107, #62 ) ) ;
#160 = APPROVAL ( #143, 'UNSPECIFIED' ) ;
#161 = LOCAL_TIME ( 13, 59, 1.000000000000000000, #97 ) ;
#162 = PERSON_AND_ORGANIZATION ( #147, #102 ) ;
#163 = PERSON_AND_ORGANIZATION ( #147, #102 ) ;
#164 = EDGE_CURVE ( 'NONE', #50, #50, #106, .T. ) ;
#165 = MECHANICAL_CONTEXT ( 'NONE', #132, 'mechanical' ) ;
#166 = CARTESIAN_POINT ( 'NONE',  ( 5.237222008264700822E-15, 62.50000000000000000, 1.500000000000000000 ) ) ;
#167 = CARTESIAN_POINT ( 'NONE',  ( 0.0000000000000000000, 11.00000000000000000, 0.0000000000000000000 ) ) ;
#168 = ORIENTED_EDGE ( 'NONE', *, *, #164, .F. ) ;
#169 = DIRECTION ( 'NONE',  ( 4.275831445896957731E-31, 1.000000000000000000, 1.224646799147353207E-16 ) ) ;
ENDSEC;
END-ISO-10303-21;
