ISO-10303-21;
HEADER;
FILE_DESCRIPTION (( 'STEP AP203' ),
    '1' );
FILE_NAME ('34792.step',
    '2021-10-15T13:34:43',
    ( '' ),
    ( '' ),
    'SwSTEP 2.0',
    'SolidWorks 2019',
    '' );
FILE_SCHEMA (( 'CONFIG_CONTROL_DESIGN' ));
ENDSEC;

DATA;
#1 = APPROVAL_DATE_TIME ( #114, #82 ) ;
#2 = CC_DESIGN_PERSON_AND_ORGANIZATION_ASSIGNMENT ( #3, #64, ( #195 ) ) ;
#3 = PERSON_AND_ORGANIZATION ( #124, #126 ) ;
#4 = PRODUCT_DEFINITION_FORMATION_WITH_SPECIFIED_SOURCE ( 'ANY', '', #195, .NOT_KNOWN. ) ;
#5 = PERSON_AND_ORGANIZATION_ROLE ( 'creator' ) ;
#6 = APPROVAL_PERSON_ORGANIZATION ( #31, #163, #85 ) ;
#7 = EDGE_LOOP ( 'NONE', ( #153 ) ) ;
#8 = CARTESIAN_POINT ( 'NONE',  ( 2.419596567818291352E-13, -8.486802318091157127E-15, 69.29999999999999716 ) ) ;
#9 = AXIS2_PLACEMENT_3D ( 'NONE', #74, #26, #197 ) ;
#10 = ORIENTED_EDGE ( 'NONE', *, *, #23, .F. ) ;
#11 = CARTESIAN_POINT ( 'NONE',  ( 0.0000000000000000000, 0.0000000000000000000, 0.0000000000000000000 ) ) ;
#12 = AXIS2_PLACEMENT_3D ( 'NONE', #93, #158, #137 ) ;
#13 = FACE_OUTER_BOUND ( 'NONE', #7, .T. ) ;
#14 = PRODUCT_DEFINITION ( 'UNKNOWN', '', #4, #176 ) ;
#15 = COORDINATED_UNIVERSAL_TIME_OFFSET ( 1, 0, .AHEAD. ) ;
#16 = APPROVAL_ROLE ( '' ) ;
#17 = EDGE_CURVE ( 'NONE', #77, #77, #198, .T. ) ;
#18 = SECURITY_CLASSIFICATION_LEVEL ( 'unclassified' ) ;
#19 = COORDINATED_UNIVERSAL_TIME_OFFSET ( 1, 0, .AHEAD. ) ;
#20 = CALENDAR_DATE ( 2021, 15, 10 ) ;
#21 = ORIENTED_EDGE ( 'NONE', *, *, #17, .F. ) ;
#22 = EDGE_LOOP ( 'NONE', ( #192 ) ) ;
#23 = EDGE_CURVE ( 'NONE', #196, #196, #187, .T. ) ;
#24 = LOCAL_TIME ( 15, 34, 43.00000000000000000, #80 ) ;
#25 = DIRECTION ( 'NONE',  ( 4.275831445896957731E-31, 1.000000000000000000, 1.224646799147353207E-16 ) ) ;
#26 = DIRECTION ( 'NONE',  ( -3.491481338843133355E-15, 1.224646799147353207E-16, -1.000000000000000000 ) ) ;
#27 = FACE_OUTER_BOUND ( 'NONE', #166, .T. ) ;
#28 = SECURITY_CLASSIFICATION ( '', '', #18 ) ;
#29 = DIRECTION ( 'NONE',  ( -3.491481338843133355E-15, 1.224646799147353207E-16, -1.000000000000000000 ) ) ;
#30 = DIRECTION ( 'NONE',  ( 0.0000000000000000000, 0.0000000000000000000, 1.000000000000000000 ) ) ;
#31 = PERSON_AND_ORGANIZATION ( #124, #126 ) ;
#32 = CC_DESIGN_APPROVAL ( #56, ( #4 ) ) ;
#33 = COORDINATED_UNIVERSAL_TIME_OFFSET ( 1, 0, .AHEAD. ) ;
#34 = CC_DESIGN_SECURITY_CLASSIFICATION ( #28, ( #4 ) ) ;
#35 = FACE_OUTER_BOUND ( 'NONE', #194, .T. ) ;
#36 = DIRECTION ( 'NONE',  ( 3.491481338843133355E-15, -1.224646799147353207E-16, 1.000000000000000000 ) ) ;
#37 = FACE_OUTER_BOUND ( 'NONE', #164, .T. ) ;
#38 = CLOSED_SHELL ( 'NONE', ( #184, #72, #150 ) ) ;
#39 = AXIS2_PLACEMENT_3D ( 'NONE', #180, #109, #40 ) ;
#40 = DIRECTION ( 'NONE',  ( -4.275831445896958607E-31, -1.000000000000000000, -1.224646799147353207E-16 ) ) ;
#41 = CARTESIAN_POINT ( 'NONE',  ( 2.419596567818291352E-13, 3.149999999999992362, 69.29999999999999716 ) ) ;
#42 = CC_DESIGN_PERSON_AND_ORGANIZATION_ASSIGNMENT ( #131, #67, ( #28 ) ) ;
#43 = LOCAL_TIME ( 15, 34, 43.00000000000000000, #19 ) ;
#44 = PLANE ( 'NONE',  #169 ) ;
#45 = APPLICATION_PROTOCOL_DEFINITION ( 'international standard', 'config_control_design', 1994, #68 ) ;
#46 = CALENDAR_DATE ( 2021, 15, 10 ) ;
#47 = DATE_AND_TIME ( #46, #95 ) ;
#48 = PERSON_AND_ORGANIZATION ( #124, #126 ) ;
#49 = CALENDAR_DATE ( 2021, 15, 10 ) ;
#50 = ADVANCED_FACE ( 'NONE', ( #35 ), #89, .F. ) ;
#51 = APPROVAL_STATUS ( 'not_yet_approved' ) ;
#52 = CONICAL_SURFACE ( 'NONE', #91, 3.149999999999992362, 1.221730476396026610 ) ;
#53 = ADVANCED_FACE ( 'NONE', ( #37, #110 ), #171, .T. ) ;
#54 = DIRECTION ( 'NONE',  ( 0.0000000000000000000, 1.000000000000000000, 0.0000000000000000000 ) ) ;
#55 = CARTESIAN_POINT ( 'NONE',  ( 2.444036937190193601E-13, -8.572527594031472993E-15, 70.00000000000000000 ) ) ;
#56 = APPROVAL ( #101, 'UNSPECIFIED' ) ;
#57 = CYLINDRICAL_SURFACE ( 'NONE', #147, 3.149999999999994138 ) ;
#58 = MANIFOLD_SOLID_BREP ( 'Corps-Déplacer/Copier1[2]', #38 ) ;
#59 = AXIS2_PLACEMENT_3D ( 'NONE', #94, #29, #122 ) ;
#60 = DIRECTION ( 'NONE',  ( 4.891250652412039088E-31, 1.000000000000000000, 1.376764663473659668E-16 ) ) ;
#61 = CARTESIAN_POINT ( 'NONE',  ( 2.444036937190193601E-13, 2.449999999999992184, 70.00000000000000000 ) ) ;
#62 = FACE_OUTER_BOUND ( 'NONE', #136, .T. ) ;
#63 = CIRCLE ( 'NONE', #9, 3.149999999999995914 ) ;
#64 = PERSON_AND_ORGANIZATION_ROLE ( 'design_owner' ) ;
#65 = APPROVAL_DATE_TIME ( #175, #56 ) ;
#66 = AXIS2_PLACEMENT_3D ( 'NONE', #179, #36, #155 ) ;
#67 = PERSON_AND_ORGANIZATION_ROLE ( 'classification_officer' ) ;
#68 = APPLICATION_CONTEXT ( 'configuration controlled 3d designs of mechanical parts and assemblies' ) ;
#69 = AXIS2_PLACEMENT_3D ( 'NONE', #8, #135, #193 ) ;
#70 = EDGE_LOOP ( 'NONE', ( #134 ) ) ;
#71 = DIRECTION ( 'NONE',  ( 3.491481338843133355E-15, -1.224646799147353207E-16, 1.000000000000000000 ) ) ;
#72 = ADVANCED_FACE ( 'NONE', ( #108, #27 ), #57, .T. ) ;
#73 =( NAMED_UNIT ( * ) SI_UNIT ( $, .STERADIAN. ) SOLID_ANGLE_UNIT ( ) );
#74 = CARTESIAN_POINT ( 'NONE',  ( 1.082359215041371340E-13, -3.796405077356795115E-15, 31.00000000000000000 ) ) ;
#75 = EDGE_CURVE ( 'NONE', #106, #106, #111, .T. ) ;
#76 = DIRECTION ( 'NONE',  ( -4.891250652412039088E-31, -1.000000000000000000, -1.376764663473659668E-16 ) ) ;
#77 = VERTEX_POINT ( 'NONE', #41 ) ;
#78 = APPLICATION_CONTEXT ( 'configuration controlled 3d designs of mechanical parts and assemblies' ) ;
#79 = PERSON_AND_ORGANIZATION_ROLE ( 'creator' ) ;
#80 = COORDINATED_UNIVERSAL_TIME_OFFSET ( 1, 0, .AHEAD. ) ;
#81 = APPROVAL_DATE_TIME ( #100, #163 ) ;
#82 = APPROVAL ( #142, 'UNSPECIFIED' ) ;
#83 = CC_DESIGN_APPROVAL ( #163, ( #28 ) ) ;
#84 = MECHANICAL_CONTEXT ( 'NONE', #78, 'mechanical' ) ;
#85 = APPROVAL_ROLE ( '' ) ;
#86 = CLOSED_SHELL ( 'NONE', ( #50, #53, #172, #189 ) ) ;
#87 = EDGE_LOOP ( 'NONE', ( #21 ) ) ;
#88 = EDGE_LOOP ( 'NONE', ( #10 ) ) ;
#89 = PLANE ( 'NONE',  #66 ) ;
#90 = ORIENTED_EDGE ( 'NONE', *, *, #23, .T. ) ;
#91 = AXIS2_PLACEMENT_3D ( 'NONE', #202, #71, #76 ) ;
#92 = CARTESIAN_POINT ( 'NONE',  ( 2.444036937190193601E-13, 1.837205733760762980E-32, 70.00000000000000000 ) ) ;
#93 = CARTESIAN_POINT ( 'NONE',  ( 1.082359215041371340E-13, -3.796405077356795115E-15, 31.00000000000000000 ) ) ;
#94 = CARTESIAN_POINT ( 'NONE',  ( 2.444036937190193601E-13, -8.572527594031472993E-15, 70.00000000000000000 ) ) ;
#95 = LOCAL_TIME ( 15, 34, 43.00000000000000000, #33 ) ;
#96 = FACE_BOUND ( 'NONE', #152, .T. ) ;
#97 =( LENGTH_UNIT ( ) NAMED_UNIT ( * ) SI_UNIT ( .MILLI., .METRE. ) );
#98 = PRODUCT_RELATED_PRODUCT_CATEGORY ( 'detail', '', ( #195 ) ) ;
#99 = AXIS2_PLACEMENT_3D ( 'NONE', #55, #132, #54 ) ;
#100 = DATE_AND_TIME ( #145, #43 ) ;
#101 = APPROVAL_STATUS ( 'not_yet_approved' ) ;
#102 = DATE_AND_TIME ( #49, #107 ) ;
#103 = APPROVAL_ROLE ( '' ) ;
#104 = CARTESIAN_POINT ( 'NONE',  ( 0.0000000000000000000, 0.0000000000000000000, 0.0000000000000000000 ) ) ;
#105 = ORIENTED_EDGE ( 'NONE', *, *, #75, .T. ) ;
#106 = VERTEX_POINT ( 'NONE', #141 ) ;
#107 = LOCAL_TIME ( 15, 34, 43.00000000000000000, #190 ) ;
#108 = FACE_OUTER_BOUND ( 'NONE', #22, .T. ) ;
#109 = DIRECTION ( 'NONE',  ( 3.491481338843133355E-15, -1.224646799147353207E-16, 1.000000000000000000 ) ) ;
#110 = FACE_OUTER_BOUND ( 'NONE', #70, .T. ) ;
#111 = CIRCLE ( 'NONE', #12, 3.149999999999995914 ) ;
#112 = CARTESIAN_POINT ( 'NONE',  ( 4.003005134629692546E-15, 3.149999999999992362, 1.146506237938549999 ) ) ;
#113 = EDGE_CURVE ( 'NONE', #125, #125, #63, .T. ) ;
#114 = DATE_AND_TIME ( #20, #148 ) ;
#115 = DATE_TIME_ROLE ( 'creation_date' ) ;
#116 = EDGE_CURVE ( 'NONE', #168, #168, #162, .T. ) ;
#117 = PERSON_AND_ORGANIZATION ( #124, #126 ) ;
#118 = ORIENTED_EDGE ( 'NONE', *, *, #75, .F. ) ;
#119 = APPROVAL_PERSON_ORGANIZATION ( #48, #56, #16 ) ;
#120 = CC_DESIGN_DATE_AND_TIME_ASSIGNMENT ( #102, #161, ( #28 ) ) ;
#121 = CARTESIAN_POINT ( 'NONE',  ( 4.003005134629690968E-15, -1.404065194493918595E-16, 1.146506237938549555 ) ) ;
#122 = DIRECTION ( 'NONE',  ( 0.0000000000000000000, 1.000000000000000000, 0.0000000000000000000 ) ) ;
#123 = DIRECTION ( 'NONE',  ( 4.275831445896958607E-31, 1.000000000000000000, 1.224646799147353454E-16 ) ) ;
#124 = PERSON ( 'UNSPECIFIED', 'UNSPECIFIED', 'UNSPECIFIED', ('UNSPECIFIED'), ('UNSPECIFIED'), ('UNSPECIFIED') ) ;
#125 = VERTEX_POINT ( 'NONE', #186 ) ;
#126 = ORGANIZATION ( 'UNSPECIFIED', 'UNSPECIFIED', '' ) ;
#127 = MANIFOLD_SOLID_BREP ( 'Corps-Déplacer/Copier1[1]', #86 ) ;
#128 = PERSON_AND_ORGANIZATION ( #124, #126 ) ;
#129 = PERSON_AND_ORGANIZATION ( #124, #126 ) ;
#130 = UNCERTAINTY_MEASURE_WITH_UNIT (LENGTH_MEASURE( 1.000000000000000082E-05 ), #97, 'distance_accuracy_value', 'NONE');
#131 = PERSON_AND_ORGANIZATION ( #124, #126 ) ;
#132 = DIRECTION ( 'NONE',  ( -3.491481338843133355E-15, 1.224646799147353207E-16, -1.000000000000000000 ) ) ;
#133 = CC_DESIGN_PERSON_AND_ORGANIZATION_ASSIGNMENT ( #117, #160, ( #4 ) ) ;
#134 = ORIENTED_EDGE ( 'NONE', *, *, #17, .T. ) ;
#135 = DIRECTION ( 'NONE',  ( -3.491481338843133355E-15, 1.224646799147353207E-16, -1.000000000000000000 ) ) ;
#136 = EDGE_LOOP ( 'NONE', ( #149 ) ) ;
#137 = DIRECTION ( 'NONE',  ( 0.0000000000000000000, 1.000000000000000000, 0.0000000000000000000 ) ) ;
#138 = DIRECTION ( 'NONE',  ( -3.491481338843133355E-15, 1.224646799147353207E-16, -1.000000000000000000 ) ) ;
#139 = FACE_OUTER_BOUND ( 'NONE', #87, .T. ) ;
#140 = DIRECTION ( 'NONE',  ( -3.491481338843133355E-15, 1.224646799147353207E-16, -1.000000000000000000 ) ) ;
#141 = CARTESIAN_POINT ( 'NONE',  ( 1.082359215041371340E-13, 3.149999999999992362, 31.00000000000000000 ) ) ;
#142 = APPROVAL_STATUS ( 'not_yet_approved' ) ;
#143 = SHAPE_DEFINITION_REPRESENTATION ( #151, #173 ) ;
#144 = CALENDAR_DATE ( 2021, 15, 10 ) ;
#145 = CALENDAR_DATE ( 2021, 15, 10 ) ;
#146 = APPLICATION_PROTOCOL_DEFINITION ( 'international standard', 'config_control_design', 1994, #78 ) ;
#147 = AXIS2_PLACEMENT_3D ( 'NONE', #11, #138, #25 ) ;
#148 = LOCAL_TIME ( 15, 34, 43.00000000000000000, #15 ) ;
#149 = ORIENTED_EDGE ( 'NONE', *, *, #113, .F. ) ;
#150 = ADVANCED_FACE ( 'NONE', ( #62 ), #170, .T. ) ;
#151 = PRODUCT_DEFINITION_SHAPE ( 'NONE', 'NONE',  #14 ) ;
#152 = EDGE_LOOP ( 'NONE', ( #90 ) ) ;
#153 = ORIENTED_EDGE ( 'NONE', *, *, #116, .T. ) ;
#154 =( NAMED_UNIT ( * ) PLANE_ANGLE_UNIT ( ) SI_UNIT ( $, .RADIAN. ) );
#155 = DIRECTION ( 'NONE',  ( -4.275831445896958607E-31, -1.000000000000000000, -1.224646799147353207E-16 ) ) ;
#156 = CONICAL_SURFACE ( 'NONE', #59, 2.450000000000000622, 0.7853981633974439491 ) ;
#157 = CC_DESIGN_PERSON_AND_ORGANIZATION_ASSIGNMENT ( #188, #79, ( #14 ) ) ;
#158 = DIRECTION ( 'NONE',  ( -3.491481338843133355E-15, 1.224646799147353207E-16, -1.000000000000000000 ) ) ;
#159 = DIRECTION ( 'NONE',  ( 1.000000000000000000, 0.0000000000000000000, 0.0000000000000000000 ) ) ;
#160 = PERSON_AND_ORGANIZATION_ROLE ( 'design_supplier' ) ;
#161 = DATE_TIME_ROLE ( 'classification_date' ) ;
#162 = CIRCLE ( 'NONE', #191, 3.149999999999992362 ) ;
#163 = APPROVAL ( #51, 'UNSPECIFIED' ) ;
#164 = EDGE_LOOP ( 'NONE', ( #118 ) ) ;
#165 =( GEOMETRIC_REPRESENTATION_CONTEXT ( 3 ) GLOBAL_UNCERTAINTY_ASSIGNED_CONTEXT ( ( #130 ) ) GLOBAL_UNIT_ASSIGNED_CONTEXT ( ( #97, #154, #73 ) ) REPRESENTATION_CONTEXT ( 'NONE', 'WORKASPACE' ) );
#166 = EDGE_LOOP ( 'NONE', ( #177 ) ) ;
#167 = CC_DESIGN_PERSON_AND_ORGANIZATION_ASSIGNMENT ( #129, #5, ( #4 ) ) ;
#168 = VERTEX_POINT ( 'NONE', #112 ) ;
#169 = AXIS2_PLACEMENT_3D ( 'NONE', #92, #140, #201 ) ;
#170 = PLANE ( 'NONE',  #39 ) ;
#171 = CYLINDRICAL_SURFACE ( 'NONE', #182, 3.149999999999998135 ) ;
#172 = ADVANCED_FACE ( 'NONE', ( #139, #96 ), #156, .T. ) ;
#173 = ADVANCED_BREP_SHAPE_REPRESENTATION ( '34792', ( #127, #58, #199 ), #165 ) ;
#174 = CC_DESIGN_APPROVAL ( #82, ( #14 ) ) ;
#175 = DATE_AND_TIME ( #144, #24 ) ;
#176 = DESIGN_CONTEXT ( 'detailed design', #68, 'design' ) ;
#177 = ORIENTED_EDGE ( 'NONE', *, *, #113, .T. ) ;
#178 = APPROVAL_PERSON_ORGANIZATION ( #128, #82, #103 ) ;
#179 = CARTESIAN_POINT ( 'NONE',  ( 1.082359215041371340E-13, 2.362121657692416974E-32, 31.00000000000000000 ) ) ;
#180 = CARTESIAN_POINT ( 'NONE',  ( 1.082359215041371340E-13, 2.362121657692416974E-32, 31.00000000000000000 ) ) ;
#181 = CARTESIAN_POINT ( 'NONE',  ( 0.0000000000000000000, 0.0000000000000000000, 0.0000000000000000000 ) ) ;
#182 = AXIS2_PLACEMENT_3D ( 'NONE', #181, #200, #123 ) ;
#183 = FACE_OUTER_BOUND ( 'NONE', #88, .T. ) ;
#184 = ADVANCED_FACE ( 'NONE', ( #13 ), #52, .T. ) ;
#185 = DIRECTION ( 'NONE',  ( -3.491481338843133355E-15, 1.224646799147353207E-16, -1.000000000000000000 ) ) ;
#186 = CARTESIAN_POINT ( 'NONE',  ( 1.082359215041371340E-13, 3.149999999999992362, 31.00000000000000000 ) ) ;
#187 = CIRCLE ( 'NONE', #99, 2.450000000000000622 ) ;
#188 = PERSON_AND_ORGANIZATION ( #124, #126 ) ;
#189 = ADVANCED_FACE ( 'NONE', ( #183 ), #44, .F. ) ;
#190 = COORDINATED_UNIVERSAL_TIME_OFFSET ( 1, 0, .AHEAD. ) ;
#191 = AXIS2_PLACEMENT_3D ( 'NONE', #121, #185, #60 ) ;
#192 = ORIENTED_EDGE ( 'NONE', *, *, #116, .F. ) ;
#193 = DIRECTION ( 'NONE',  ( 0.0000000000000000000, 1.000000000000000000, 0.0000000000000000000 ) ) ;
#194 = EDGE_LOOP ( 'NONE', ( #105 ) ) ;
#195 = PRODUCT ( '34792', '34792', '', ( #84 ) ) ;
#196 = VERTEX_POINT ( 'NONE', #61 ) ;
#197 = DIRECTION ( 'NONE',  ( 0.0000000000000000000, 1.000000000000000000, 0.0000000000000000000 ) ) ;
#198 = CIRCLE ( 'NONE', #69, 3.150000000000000799 ) ;
#199 = AXIS2_PLACEMENT_3D ( 'NONE', #104, #30, #159 ) ;
#200 = DIRECTION ( 'NONE',  ( -3.491481338843133355E-15, 1.224646799147353207E-16, -1.000000000000000000 ) ) ;
#201 = DIRECTION ( 'NONE',  ( 4.275831445896958607E-31, 1.000000000000000000, 1.224646799147353207E-16 ) ) ;
#202 = CARTESIAN_POINT ( 'NONE',  ( 4.003005134629690968E-15, -1.404065194493918595E-16, 1.146506237938549555 ) ) ;
#203 = CC_DESIGN_DATE_AND_TIME_ASSIGNMENT ( #47, #115, ( #14 ) ) ;
ENDSEC;
END-ISO-10303-21;
