ISO-10303-21;
HEADER;
FILE_DESCRIPTION (( 'STEP AP203' ),
    '1' );
FILE_NAME ('34791.step',
    '2021-10-15T13:34:43',
    ( '' ),
    ( '' ),
    'SwSTEP 2.0',
    'SolidWorks 2019',
    '' );
FILE_SCHEMA (( 'CONFIG_CONTROL_DESIGN' ));
ENDSEC;

DATA;
#1 = DIRECTION ( 'NONE',  ( -4.279844320860538034E-31, -1.000000000000000000, -1.606225440719271051E-16 ) ) ;
#2 = APPROVAL_ROLE ( '' ) ;
#3 = DATE_TIME_ROLE ( 'creation_date' ) ;
#4 = PERSON_AND_ORGANIZATION ( #111, #25 ) ;
#5 = PERSON_AND_ORGANIZATION ( #111, #25 ) ;
#6 = PERSON_AND_ORGANIZATION ( #111, #25 ) ;
#7 = CC_DESIGN_DATE_AND_TIME_ASSIGNMENT ( #105, #156, ( #21 ) ) ;
#8 = FACE_OUTER_BOUND ( 'NONE', #182, .T. ) ;
#9 = CC_DESIGN_PERSON_AND_ORGANIZATION_ASSIGNMENT ( #125, #194, ( #64 ) ) ;
#10 = ORIENTED_EDGE ( 'NONE', *, *, #121, .T. ) ;
#11 =( NAMED_UNIT ( * ) SI_UNIT ( $, .STERADIAN. ) SOLID_ANGLE_UNIT ( ) );
#12 = CONICAL_SURFACE ( 'NONE', #124, 2.699999999999991296, 1.221730476396026610 ) ;
#13 = CARTESIAN_POINT ( 'NONE',  ( 9.776147748760773395E-14, -3.429011037612589276E-15, 28.00000000000000000 ) ) ;
#14 = DIRECTION ( 'NONE',  ( 0.0000000000000000000, 1.000000000000000000, 0.0000000000000000000 ) ) ;
#15 = LOCAL_TIME ( 15, 34, 43.00000000000000000, #89 ) ;
#16 = DATE_AND_TIME ( #104, #163 ) ;
#17 = SHAPE_DEFINITION_REPRESENTATION ( #65, #93 ) ;
#18 = PERSON_AND_ORGANIZATION ( #111, #25 ) ;
#19 = CIRCLE ( 'NONE', #73, 2.699999999999991296 ) ;
#20 = CC_DESIGN_APPROVAL ( #169, ( #21 ) ) ;
#21 = SECURITY_CLASSIFICATION ( '', '', #33 ) ;
#22 = PLANE ( 'NONE',  #77 ) ;
#23 = DIRECTION ( 'NONE',  ( -3.491481338843133355E-15, 1.224646799147353207E-16, -1.000000000000000000 ) ) ;
#24 = CONICAL_SURFACE ( 'NONE', #91, 2.199999999999999734, 0.7853981633974473908 ) ;
#25 = ORGANIZATION ( 'UNSPECIFIED', 'UNSPECIFIED', '' ) ;
#26 = PLANE ( 'NONE',  #38 ) ;
#27 = CARTESIAN_POINT ( 'NONE',  ( 2.286920276942252663E-13, -8.021436534415164826E-15, 65.50000000000000000 ) ) ;
#28 = CARTESIAN_POINT ( 'NONE',  ( 2.304377683636468267E-13, -8.082668874372532400E-15, 66.00000000000000000 ) ) ;
#29 = DIRECTION ( 'NONE',  ( -3.491481338843133355E-15, 1.224646799147353207E-16, -1.000000000000000000 ) ) ;
#30 = CALENDAR_DATE ( 2021, 15, 10 ) ;
#31 = PERSON_AND_ORGANIZATION_ROLE ( 'creator' ) ;
#32 = ADVANCED_FACE ( 'NONE', ( #8 ), #22, .T. ) ;
#33 = SECURITY_CLASSIFICATION_LEVEL ( 'unclassified' ) ;
#34 = PRODUCT_RELATED_PRODUCT_CATEGORY ( 'detail', '', ( #64 ) ) ;
#35 = ORIENTED_EDGE ( 'NONE', *, *, #74, .T. ) ;
#36 = ORIENTED_EDGE ( 'NONE', *, *, #198, .F. ) ;
#37 = EDGE_LOOP ( 'NONE', ( #72 ) ) ;
#38 = AXIS2_PLACEMENT_3D ( 'NONE', #165, #29, #203 ) ;
#39 = LOCAL_TIME ( 15, 34, 43.00000000000000000, #48 ) ;
#40 = CC_DESIGN_PERSON_AND_ORGANIZATION_ASSIGNMENT ( #4, #67, ( #21 ) ) ;
#41 = EDGE_LOOP ( 'NONE', ( #82 ) ) ;
#42 = DIRECTION ( 'NONE',  ( 3.491481338843133355E-15, -1.224646799147353207E-16, 1.000000000000000000 ) ) ;
#43 = DIRECTION ( 'NONE',  ( -3.491481338843133355E-15, 1.224646799147353207E-16, -1.000000000000000000 ) ) ;
#44 = CIRCLE ( 'NONE', #138, 2.699999999999994849 ) ;
#45 = DIRECTION ( 'NONE',  ( 0.0000000000000000000, 1.000000000000000000, 0.0000000000000000000 ) ) ;
#46 = VERTEX_POINT ( 'NONE', #170 ) ;
#47 = DIRECTION ( 'NONE',  ( -3.491481338843133355E-15, 1.224646799147353207E-16, -1.000000000000000000 ) ) ;
#48 = COORDINATED_UNIVERSAL_TIME_OFFSET ( 1, 0, .AHEAD. ) ;
#49 = PERSON_AND_ORGANIZATION_ROLE ( 'creator' ) ;
#50 = CALENDAR_DATE ( 2021, 15, 10 ) ;
#51 = DIRECTION ( 'NONE',  ( 0.0000000000000000000, 0.0000000000000000000, 1.000000000000000000 ) ) ;
#52 = CARTESIAN_POINT ( 'NONE',  ( 0.0000000000000000000, 0.0000000000000000000, 0.0000000000000000000 ) ) ;
#53 = ADVANCED_FACE ( 'NONE', ( #145 ), #69, .F. ) ;
#54 = CIRCLE ( 'NONE', #191, 2.199999999999999734 ) ;
#55 = ORIENTED_EDGE ( 'NONE', *, *, #178, .F. ) ;
#56 = APPROVAL ( #171, 'UNSPECIFIED' ) ;
#57 = CYLINDRICAL_SURFACE ( 'NONE', #118, 2.699999999999997069 ) ;
#58 = DIRECTION ( 'NONE',  ( 4.275831445896958607E-31, 1.000000000000000000, 1.224646799147353207E-16 ) ) ;
#59 = DIRECTION ( 'NONE',  ( 4.275831445896958607E-31, 1.000000000000000000, 1.224646799147353207E-16 ) ) ;
#60 = AXIS2_PLACEMENT_3D ( 'NONE', #116, #186, #58 ) ;
#61 = APPROVAL_PERSON_ORGANIZATION ( #18, #169, #190 ) ;
#62 = VERTEX_POINT ( 'NONE', #120 ) ;
#63 = DIRECTION ( 'NONE',  ( 4.279844320860538034E-31, 1.000000000000000000, 1.606225440719271051E-16 ) ) ;
#64 = PRODUCT ( '34791', '34791', '', ( #108 ) ) ;
#65 = PRODUCT_DEFINITION_SHAPE ( 'NONE', 'NONE',  #174 ) ;
#66 = COORDINATED_UNIVERSAL_TIME_OFFSET ( 1, 0, .AHEAD. ) ;
#67 = PERSON_AND_ORGANIZATION_ROLE ( 'classification_officer' ) ;
#68 = APPROVAL_PERSON_ORGANIZATION ( #6, #134, #90 ) ;
#69 = PLANE ( 'NONE',  #79 ) ;
#70 = EDGE_LOOP ( 'NONE', ( #110 ) ) ;
#71 = AXIS2_PLACEMENT_3D ( 'NONE', #52, #51, #106 ) ;
#72 = ORIENTED_EDGE ( 'NONE', *, *, #146, .T. ) ;
#73 = AXIS2_PLACEMENT_3D ( 'NONE', #112, #180, #63 ) ;
#74 = EDGE_CURVE ( 'NONE', #155, #155, #19, .T. ) ;
#75 = CARTESIAN_POINT ( 'NONE',  ( 3.431147258254018745E-15, -1.203484452423357598E-16, 0.9827196325187560477 ) ) ;
#76 = CARTESIAN_POINT ( 'NONE',  ( 3.431147258254019929E-15, 2.699999999999991296, 0.9827196325187564918 ) ) ;
#77 = AXIS2_PLACEMENT_3D ( 'NONE', #162, #95, #83 ) ;
#78 = CC_DESIGN_PERSON_AND_ORGANIZATION_ASSIGNMENT ( #159, #141, ( #128 ) ) ;
#79 = AXIS2_PLACEMENT_3D ( 'NONE', #129, #130, #196 ) ;
#80 = PERSON_AND_ORGANIZATION ( #111, #25 ) ;
#81 = DATE_AND_TIME ( #123, #15 ) ;
#82 = ORIENTED_EDGE ( 'NONE', *, *, #178, .T. ) ;
#83 = DIRECTION ( 'NONE',  ( -4.275831445896958607E-31, -1.000000000000000000, -1.224646799147353207E-16 ) ) ;
#84 =( GEOMETRIC_REPRESENTATION_CONTEXT ( 3 ) GLOBAL_UNCERTAINTY_ASSIGNED_CONTEXT ( ( #195 ) ) GLOBAL_UNIT_ASSIGNED_CONTEXT ( ( #168, #150, #11 ) ) REPRESENTATION_CONTEXT ( 'NONE', 'WORKASPACE' ) );
#85 = FACE_OUTER_BOUND ( 'NONE', #184, .T. ) ;
#86 = DIRECTION ( 'NONE',  ( -3.491481338843133355E-15, 1.224646799147353207E-16, -1.000000000000000000 ) ) ;
#87 = CC_DESIGN_DATE_AND_TIME_ASSIGNMENT ( #16, #3, ( #174 ) ) ;
#88 = DIRECTION ( 'NONE',  ( -3.491481338843133355E-15, 1.224646799147353207E-16, -1.000000000000000000 ) ) ;
#89 = COORDINATED_UNIVERSAL_TIME_OFFSET ( 1, 0, .AHEAD. ) ;
#90 = APPROVAL_ROLE ( '' ) ;
#91 = AXIS2_PLACEMENT_3D ( 'NONE', #136, #43, #152 ) ;
#92 = DATE_AND_TIME ( #30, #39 ) ;
#93 = ADVANCED_BREP_SHAPE_REPRESENTATION ( '34791', ( #113, #119, #71 ), #84 ) ;
#94 = CIRCLE ( 'NONE', #151, 2.699999999999994849 ) ;
#95 = DIRECTION ( 'NONE',  ( 3.491481338843133355E-15, -1.224646799147353207E-16, 1.000000000000000000 ) ) ;
#96 = EDGE_LOOP ( 'NONE', ( #35 ) ) ;
#97 = CC_DESIGN_APPROVAL ( #56, ( #128 ) ) ;
#98 = ORIENTED_EDGE ( 'NONE', *, *, #74, .F. ) ;
#99 = FACE_OUTER_BOUND ( 'NONE', #197, .T. ) ;
#100 = FACE_BOUND ( 'NONE', #161, .T. ) ;
#101 = DIRECTION ( 'NONE',  ( 0.0000000000000000000, 1.000000000000000000, 0.0000000000000000000 ) ) ;
#102 = DIRECTION ( 'NONE',  ( -3.491481338843133355E-15, 1.224646799147353207E-16, -1.000000000000000000 ) ) ;
#103 = LOCAL_TIME ( 15, 34, 43.00000000000000000, #66 ) ;
#104 = CALENDAR_DATE ( 2021, 15, 10 ) ;
#105 = DATE_AND_TIME ( #50, #166 ) ;
#106 = DIRECTION ( 'NONE',  ( 1.000000000000000000, 0.0000000000000000000, 0.0000000000000000000 ) ) ;
#107 = CC_DESIGN_PERSON_AND_ORGANIZATION_ASSIGNMENT ( #5, #49, ( #128 ) ) ;
#108 = MECHANICAL_CONTEXT ( 'NONE', #201, 'mechanical' ) ;
#109 = APPLICATION_CONTEXT ( 'configuration controlled 3d designs of mechanical parts and assemblies' ) ;
#110 = ORIENTED_EDGE ( 'NONE', *, *, #146, .F. ) ;
#111 = PERSON ( 'UNSPECIFIED', 'UNSPECIFIED', 'UNSPECIFIED', ('UNSPECIFIED'), ('UNSPECIFIED'), ('UNSPECIFIED') ) ;
#112 = CARTESIAN_POINT ( 'NONE',  ( 3.431147258254018745E-15, -1.203484452423357598E-16, 0.9827196325187560477 ) ) ;
#113 = MANIFOLD_SOLID_BREP ( 'Corps-Déplacer/Copier1[1]', #160 ) ;
#114 = EDGE_LOOP ( 'NONE', ( #98 ) ) ;
#115 = ADVANCED_FACE ( 'NONE', ( #85 ), #26, .F. ) ;
#116 = CARTESIAN_POINT ( 'NONE',  ( 0.0000000000000000000, 0.0000000000000000000, 0.0000000000000000000 ) ) ;
#117 = DIRECTION ( 'NONE',  ( 0.0000000000000000000, 1.000000000000000000, 0.0000000000000000000 ) ) ;
#118 = AXIS2_PLACEMENT_3D ( 'NONE', #154, #88, #59 ) ;
#119 = MANIFOLD_SOLID_BREP ( 'Corps-Déplacer/Copier1[2]', #164 ) ;
#120 = CARTESIAN_POINT ( 'NONE',  ( 2.304377683636468267E-13, 2.199999999999991296, 66.00000000000000000 ) ) ;
#121 = EDGE_CURVE ( 'NONE', #62, #62, #54, .T. ) ;
#122 = VERTEX_POINT ( 'NONE', #185 ) ;
#123 = CALENDAR_DATE ( 2021, 15, 10 ) ;
#124 = AXIS2_PLACEMENT_3D ( 'NONE', #75, #42, #1 ) ;
#125 = PERSON_AND_ORGANIZATION ( #111, #25 ) ;
#126 = DATE_AND_TIME ( #157, #103 ) ;
#127 = ADVANCED_FACE ( 'NONE', ( #189 ), #12, .T. ) ;
#128 = PRODUCT_DEFINITION_FORMATION_WITH_SPECIFIED_SOURCE ( 'ANY', '', #64, .NOT_KNOWN. ) ;
#129 = CARTESIAN_POINT ( 'NONE',  ( 9.776147748760773395E-14, 2.024675706593498739E-32, 28.00000000000000000 ) ) ;
#130 = DIRECTION ( 'NONE',  ( 3.491481338843133355E-15, -1.224646799147353207E-16, 1.000000000000000000 ) ) ;
#131 = CYLINDRICAL_SURFACE ( 'NONE', #60, 2.699999999999993072 ) ;
#132 = VERTEX_POINT ( 'NONE', #187 ) ;
#133 = FACE_OUTER_BOUND ( 'NONE', #147, .T. ) ;
#134 = APPROVAL ( #192, 'UNSPECIFIED' ) ;
#135 = FACE_OUTER_BOUND ( 'NONE', #70, .T. ) ;
#136 = CARTESIAN_POINT ( 'NONE',  ( 2.304377683636468267E-13, -8.082668874372532400E-15, 66.00000000000000000 ) ) ;
#137 = APPROVAL_DATE_TIME ( #81, #56 ) ;
#138 = AXIS2_PLACEMENT_3D ( 'NONE', #202, #23, #117 ) ;
#139 = APPLICATION_PROTOCOL_DEFINITION ( 'international standard', 'config_control_design', 1994, #201 ) ;
#140 = CC_DESIGN_PERSON_AND_ORGANIZATION_ASSIGNMENT ( #177, #31, ( #174 ) ) ;
#141 = PERSON_AND_ORGANIZATION_ROLE ( 'design_supplier' ) ;
#142 = DESIGN_CONTEXT ( 'detailed design', #109, 'design' ) ;
#143 = APPLICATION_PROTOCOL_DEFINITION ( 'international standard', 'config_control_design', 1994, #109 ) ;
#144 = CC_DESIGN_APPROVAL ( #134, ( #174 ) ) ;
#145 = FACE_OUTER_BOUND ( 'NONE', #37, .T. ) ;
#146 = EDGE_CURVE ( 'NONE', #132, #132, #94, .T. ) ;
#147 = EDGE_LOOP ( 'NONE', ( #36 ) ) ;
#148 = CIRCLE ( 'NONE', #175, 2.699999999999999289 ) ;
#149 = ORIENTED_EDGE ( 'NONE', *, *, #198, .T. ) ;
#150 =( NAMED_UNIT ( * ) PLANE_ANGLE_UNIT ( ) SI_UNIT ( $, .RADIAN. ) );
#151 = AXIS2_PLACEMENT_3D ( 'NONE', #13, #47, #45 ) ;
#152 = DIRECTION ( 'NONE',  ( 0.0000000000000000000, 1.000000000000000000, 0.0000000000000000000 ) ) ;
#153 = ADVANCED_FACE ( 'NONE', ( #133, #100 ), #24, .T. ) ;
#154 = CARTESIAN_POINT ( 'NONE',  ( 0.0000000000000000000, 0.0000000000000000000, 0.0000000000000000000 ) ) ;
#155 = VERTEX_POINT ( 'NONE', #76 ) ;
#156 = DATE_TIME_ROLE ( 'classification_date' ) ;
#157 = CALENDAR_DATE ( 2021, 15, 10 ) ;
#158 = APPROVAL_DATE_TIME ( #92, #169 ) ;
#159 = PERSON_AND_ORGANIZATION ( #111, #25 ) ;
#160 = CLOSED_SHELL ( 'NONE', ( #53, #181, #153, #115 ) ) ;
#161 = EDGE_LOOP ( 'NONE', ( #10 ) ) ;
#162 = CARTESIAN_POINT ( 'NONE',  ( 9.776147748760773395E-14, 2.024675706593498739E-32, 28.00000000000000000 ) ) ;
#163 = LOCAL_TIME ( 15, 34, 43.00000000000000000, #172 ) ;
#164 = CLOSED_SHELL ( 'NONE', ( #127, #188, #32 ) ) ;
#165 = CARTESIAN_POINT ( 'NONE',  ( 2.304377683636468267E-13, 1.649735760928030779E-32, 66.00000000000000000 ) ) ;
#166 = LOCAL_TIME ( 15, 34, 43.00000000000000000, #193 ) ;
#167 = FACE_OUTER_BOUND ( 'NONE', #114, .T. ) ;
#168 =( LENGTH_UNIT ( ) NAMED_UNIT ( * ) SI_UNIT ( .MILLI., .METRE. ) );
#169 = APPROVAL ( #173, 'UNSPECIFIED' ) ;
#170 = CARTESIAN_POINT ( 'NONE',  ( 2.286920276942252663E-13, 2.699999999999991296, 65.50000000000000000 ) ) ;
#171 = APPROVAL_STATUS ( 'not_yet_approved' ) ;
#172 = COORDINATED_UNIVERSAL_TIME_OFFSET ( 1, 0, .AHEAD. ) ;
#173 = APPROVAL_STATUS ( 'not_yet_approved' ) ;
#174 = PRODUCT_DEFINITION ( 'UNKNOWN', '', #128, #142 ) ;
#175 = AXIS2_PLACEMENT_3D ( 'NONE', #27, #86, #14 ) ;
#176 = APPROVAL_DATE_TIME ( #126, #134 ) ;
#177 = PERSON_AND_ORGANIZATION ( #111, #25 ) ;
#178 = EDGE_CURVE ( 'NONE', #122, #122, #44, .T. ) ;
#179 = ORIENTED_EDGE ( 'NONE', *, *, #121, .F. ) ;
#180 = DIRECTION ( 'NONE',  ( -3.491481338843133355E-15, 1.224646799147353207E-16, -1.000000000000000000 ) ) ;
#181 = ADVANCED_FACE ( 'NONE', ( #135, #99 ), #57, .T. ) ;
#182 = EDGE_LOOP ( 'NONE', ( #55 ) ) ;
#183 = CC_DESIGN_SECURITY_CLASSIFICATION ( #21, ( #128 ) ) ;
#184 = EDGE_LOOP ( 'NONE', ( #179 ) ) ;
#185 = CARTESIAN_POINT ( 'NONE',  ( 9.776147748760773395E-14, 2.699999999999991296, 28.00000000000000000 ) ) ;
#186 = DIRECTION ( 'NONE',  ( -3.491481338843133355E-15, 1.224646799147353207E-16, -1.000000000000000000 ) ) ;
#187 = CARTESIAN_POINT ( 'NONE',  ( 9.776147748760773395E-14, 2.699999999999991296, 28.00000000000000000 ) ) ;
#188 = ADVANCED_FACE ( 'NONE', ( #167, #200 ), #131, .T. ) ;
#189 = FACE_OUTER_BOUND ( 'NONE', #96, .T. ) ;
#190 = APPROVAL_ROLE ( '' ) ;
#191 = AXIS2_PLACEMENT_3D ( 'NONE', #28, #102, #101 ) ;
#192 = APPROVAL_STATUS ( 'not_yet_approved' ) ;
#193 = COORDINATED_UNIVERSAL_TIME_OFFSET ( 1, 0, .AHEAD. ) ;
#194 = PERSON_AND_ORGANIZATION_ROLE ( 'design_owner' ) ;
#195 = UNCERTAINTY_MEASURE_WITH_UNIT (LENGTH_MEASURE( 1.000000000000000082E-05 ), #168, 'distance_accuracy_value', 'NONE');
#196 = DIRECTION ( 'NONE',  ( -4.275831445896958607E-31, -1.000000000000000000, -1.224646799147353207E-16 ) ) ;
#197 = EDGE_LOOP ( 'NONE', ( #149 ) ) ;
#198 = EDGE_CURVE ( 'NONE', #46, #46, #148, .T. ) ;
#199 = APPROVAL_PERSON_ORGANIZATION ( #80, #56, #2 ) ;
#200 = FACE_OUTER_BOUND ( 'NONE', #41, .T. ) ;
#201 = APPLICATION_CONTEXT ( 'configuration controlled 3d designs of mechanical parts and assemblies' ) ;
#202 = CARTESIAN_POINT ( 'NONE',  ( 9.776147748760773395E-14, -3.429011037612589276E-15, 28.00000000000000000 ) ) ;
#203 = DIRECTION ( 'NONE',  ( 4.275831445896958607E-31, 1.000000000000000000, 1.224646799147353207E-16 ) ) ;
ENDSEC;
END-ISO-10303-21;
