ISO-10303-21;
HEADER;
FILE_DESCRIPTION (( 'STEP AP203' ),
    '1' );
FILE_NAME ('34761.step',
    '2021-11-12T10:08:57',
    ( '' ),
    ( '' ),
    'SwSTEP 2.0',
    'SolidWorks 2019',
    '' );
FILE_SCHEMA (( 'CONFIG_CONTROL_DESIGN' ));
ENDSEC;

DATA;
#1 =( LENGTH_UNIT ( ) NAMED_UNIT ( * ) SI_UNIT ( .MILLI., .METRE. ) );
#2 = CARTESIAN_POINT ( 'NONE',  ( 4.189777606611760026E-14, -1.469576158976823947E-15, 12.00000000000000000 ) ) ;
#3 = DIRECTION ( 'NONE',  ( -3.491481338843133355E-15, 1.224646799147353207E-16, -1.000000000000000000 ) ) ;
#4 = CIRCLE ( 'NONE', #154, 1.750000000000002665 ) ;
#5 = CYLINDRICAL_SURFACE ( 'NONE', #29, 1.750000000000001332 ) ;
#6 = PERSON_AND_ORGANIZATION_ROLE ( 'design_owner' ) ;
#7 = ADVANCED_FACE ( 'NONE', ( #101, #162 ), #5, .T. ) ;
#8 = ORIENTED_EDGE ( 'NONE', *, *, #13, .T. ) ;
#9 = PERSON_AND_ORGANIZATION ( #14, #49 ) ;
#10 = AXIS2_PLACEMENT_3D ( 'NONE', #68, #131, #155 ) ;
#11 = APPLICATION_PROTOCOL_DEFINITION ( 'international standard', 'config_control_design', 1994, #94 ) ;
#12 = DIRECTION ( 'NONE',  ( -3.491481338843133355E-15, 1.224646799147353207E-16, -1.000000000000000000 ) ) ;
#13 = EDGE_CURVE ( 'NONE', #53, #53, #186, .T. ) ;
#14 = PERSON ( 'UNSPECIFIED', 'UNSPECIFIED', 'UNSPECIFIED', ('UNSPECIFIED'), ('UNSPECIFIED'), ('UNSPECIFIED') ) ;
#15 = EDGE_CURVE ( 'NONE', #82, #82, #130, .T. ) ;
#16 = DIRECTION ( 'NONE',  ( 0.0000000000000000000, 1.000000000000000000, 0.0000000000000000000 ) ) ;
#17 = CARTESIAN_POINT ( 'NONE',  ( 1.326762908760390423E-13, -4.653657836759941941E-15, 38.00000000000000000 ) ) ;
#18 = DIRECTION ( 'NONE',  ( 1.000000000000000000, 0.0000000000000000000, 0.0000000000000000000 ) ) ;
#19 = PRODUCT_DEFINITION_FORMATION_WITH_SPECIFIED_SOURCE ( 'ANY', '', #32, .NOT_KNOWN. ) ;
#20 =( NAMED_UNIT ( * ) PLANE_ANGLE_UNIT ( ) SI_UNIT ( $, .RADIAN. ) );
#21 = DIRECTION ( 'NONE',  ( -3.491481338843133355E-15, 1.224646799147353207E-16, -1.000000000000000000 ) ) ;
#22 = CALENDAR_DATE ( 2021, 12, 11 ) ;
#23 = PERSON_AND_ORGANIZATION_ROLE ( 'design_supplier' ) ;
#24 = EDGE_LOOP ( 'NONE', ( #166 ) ) ;
#25 = COORDINATED_UNIVERSAL_TIME_OFFSET ( 1, 0, .AHEAD. ) ;
#26 = PERSON_AND_ORGANIZATION ( #14, #49 ) ;
#27 = CC_DESIGN_APPROVAL ( #31, ( #19 ) ) ;
#28 = CC_DESIGN_PERSON_AND_ORGANIZATION_ASSIGNMENT ( #152, #23, ( #19 ) ) ;
#29 = AXIS2_PLACEMENT_3D ( 'NONE', #167, #21, #148 ) ;
#30 = CARTESIAN_POINT ( 'NONE',  ( -7.482705030319677999E-31, 2.624579619658250814E-32, -2.143131898507868297E-16 ) ) ;
#31 = APPROVAL ( #132, 'UNSPECIFIED' ) ;
#32 = PRODUCT ( '34761', '34761', '', ( #37 ) ) ;
#33 = CARTESIAN_POINT ( 'NONE',  ( 4.189777606611760026E-14, -1.469576158976823947E-15, 12.00000000000000000 ) ) ;
#34 = APPROVAL_PERSON_ORGANIZATION ( #77, #122, #72 ) ;
#35 = CC_DESIGN_SECURITY_CLASSIFICATION ( #169, ( #19 ) ) ;
#36 = CARTESIAN_POINT ( 'NONE',  ( 1.316288464743861212E-13, -4.616918432785521081E-15, 37.69999999999999574 ) ) ;
#37 = MECHANICAL_CONTEXT ( 'NONE', #156, 'mechanical' ) ;
#38 = CARTESIAN_POINT ( 'NONE',  ( 0.0000000000000000000, 1.750000000000000000, 0.0000000000000000000 ) ) ;
#39 = APPROVAL ( #137, 'UNSPECIFIED' ) ;
#40 = CARTESIAN_POINT ( 'NONE',  ( 1.326762908760390423E-13, 1.087325842429840608E-32, 38.00000000000000000 ) ) ;
#41 = ORIENTED_EDGE ( 'NONE', *, *, #61, .T. ) ;
#42 = EDGE_LOOP ( 'NONE', ( #71 ) ) ;
#43 = COORDINATED_UNIVERSAL_TIME_OFFSET ( 1, 0, .AHEAD. ) ;
#44 = APPROVAL_DATE_TIME ( #184, #122 ) ;
#45 = PERSON_AND_ORGANIZATION ( #14, #49 ) ;
#46 = ADVANCED_FACE ( 'NONE', ( #58 ), #78, .T. ) ;
#47 = DIRECTION ( 'NONE',  ( 3.491481338843133355E-15, -1.224646799147353207E-16, 1.000000000000000000 ) ) ;
#48 = PRODUCT_DEFINITION ( 'UNKNOWN', '', #19, #88 ) ;
#49 = ORGANIZATION ( 'UNSPECIFIED', 'UNSPECIFIED', '' ) ;
#50 = PLANE ( 'NONE',  #143 ) ;
#51 = ADVANCED_FACE ( 'NONE', ( #140, #108 ), #170, .T. ) ;
#52 = CARTESIAN_POINT ( 'NONE',  ( 0.0000000000000000000, 0.0000000000000000000, 0.0000000000000000000 ) ) ;
#53 = VERTEX_POINT ( 'NONE', #65 ) ;
#54 = CIRCLE ( 'NONE', #109, 1.750000000000000000 ) ;
#55 = PERSON_AND_ORGANIZATION ( #14, #49 ) ;
#56 = DATE_AND_TIME ( #201, #99 ) ;
#57 = ORIENTED_EDGE ( 'NONE', *, *, #13, .F. ) ;
#58 = FACE_OUTER_BOUND ( 'NONE', #199, .T. ) ;
#59 = LOCAL_TIME ( 11, 8, 57.00000000000000000, #43 ) ;
#60 = MANIFOLD_SOLID_BREP ( 'Corps-Déplacer/Copier1[2]', #188 ) ;
#61 = EDGE_CURVE ( 'NONE', #116, #116, #4, .T. ) ;
#62 = DIRECTION ( 'NONE',  ( 0.0000000000000000000, 0.0000000000000000000, 1.000000000000000000 ) ) ;
#63 = DIRECTION ( 'NONE',  ( 0.0000000000000000000, 1.000000000000000000, 0.0000000000000000000 ) ) ;
#64 = CC_DESIGN_DATE_AND_TIME_ASSIGNMENT ( #150, #195, ( #169 ) ) ;
#65 = CARTESIAN_POINT ( 'NONE',  ( 1.326762908760390423E-13, 1.449999999999996403, 38.00000000000000000 ) ) ;
#66 = FACE_BOUND ( 'NONE', #83, .T. ) ;
#67 = CARTESIAN_POINT ( 'NONE',  ( 4.189777606611760026E-14, 1.312289809829123491E-32, 12.00000000000000000 ) ) ;
#68 = CARTESIAN_POINT ( 'NONE',  ( 1.326762908760390423E-13, -4.653657836759941941E-15, 38.00000000000000000 ) ) ;
#69 = DATE_AND_TIME ( #107, #117 ) ;
#70 = CLOSED_SHELL ( 'NONE', ( #136, #7, #146, #103 ) ) ;
#71 = ORIENTED_EDGE ( 'NONE', *, *, #61, .F. ) ;
#72 = APPROVAL_ROLE ( '' ) ;
#73 = EDGE_LOOP ( 'NONE', ( #89 ) ) ;
#74 = APPROVAL_STATUS ( 'not_yet_approved' ) ;
#75 = CC_DESIGN_PERSON_AND_ORGANIZATION_ASSIGNMENT ( #26, #106, ( #19 ) ) ;
#76 = EDGE_LOOP ( 'NONE', ( #41 ) ) ;
#77 = PERSON_AND_ORGANIZATION ( #14, #49 ) ;
#78 = PLANE ( 'NONE',  #96 ) ;
#79 = APPLICATION_PROTOCOL_DEFINITION ( 'international standard', 'config_control_design', 1994, #156 ) ;
#80 = CARTESIAN_POINT ( 'NONE',  ( 1.316288464743861212E-13, 1.749999999999998002, 37.69999999999999574 ) ) ;
#81 = DIRECTION ( 'NONE',  ( 0.0000000000000000000, 1.000000000000000000, 0.0000000000000000000 ) ) ;
#82 = VERTEX_POINT ( 'NONE', #38 ) ;
#83 = EDGE_LOOP ( 'NONE', ( #8 ) ) ;
#84 = ORIENTED_EDGE ( 'NONE', *, *, #181, .T. ) ;
#85 = COORDINATED_UNIVERSAL_TIME_OFFSET ( 1, 0, .AHEAD. ) ;
#86 = LOCAL_TIME ( 11, 8, 57.00000000000000000, #25 ) ;
#87 = EDGE_LOOP ( 'NONE', ( #57 ) ) ;
#88 = DESIGN_CONTEXT ( 'detailed design', #94, 'design' ) ;
#89 = ORIENTED_EDGE ( 'NONE', *, *, #15, .F. ) ;
#90 = COORDINATED_UNIVERSAL_TIME_OFFSET ( 1, 0, .AHEAD. ) ;
#91 = PERSON_AND_ORGANIZATION_ROLE ( 'creator' ) ;
#92 = AXIS2_PLACEMENT_3D ( 'NONE', #33, #189, #81 ) ;
#93 = DIRECTION ( 'NONE',  ( -4.275831445896958607E-31, -1.000000000000000000, -1.224646799147353207E-16 ) ) ;
#94 = APPLICATION_CONTEXT ( 'configuration controlled 3d designs of mechanical parts and assemblies' ) ;
#95 = VERTEX_POINT ( 'NONE', #144 ) ;
#96 = AXIS2_PLACEMENT_3D ( 'NONE', #185, #47, #93 ) ;
#97 = DIRECTION ( 'NONE',  ( -3.491481338843133355E-15, 1.224646799147353207E-16, -1.000000000000000000 ) ) ;
#98 = CARTESIAN_POINT ( 'NONE',  ( 4.189777606611760026E-14, 1.749999999999998446, 12.00000000000000000 ) ) ;
#99 = LOCAL_TIME ( 11, 8, 57.00000000000000000, #104 ) ;
#100 = FACE_OUTER_BOUND ( 'NONE', #120, .T. ) ;
#101 = FACE_OUTER_BOUND ( 'NONE', #76, .T. ) ;
#102 = APPROVAL_DATE_TIME ( #56, #39 ) ;
#103 = ADVANCED_FACE ( 'NONE', ( #177 ), #147, .F. ) ;
#104 = COORDINATED_UNIVERSAL_TIME_OFFSET ( 1, 0, .AHEAD. ) ;
#105 = ORIENTED_EDGE ( 'NONE', *, *, #181, .F. ) ;
#106 = PERSON_AND_ORGANIZATION_ROLE ( 'creator' ) ;
#107 = CALENDAR_DATE ( 2021, 12, 11 ) ;
#108 = FACE_OUTER_BOUND ( 'NONE', #73, .T. ) ;
#109 = AXIS2_PLACEMENT_3D ( 'NONE', #2, #113, #176 ) ;
#110 = EDGE_CURVE ( 'NONE', #95, #95, #179, .T. ) ;
#111 = CC_DESIGN_APPROVAL ( #39, ( #169 ) ) ;
#112 =( GEOMETRIC_REPRESENTATION_CONTEXT ( 3 ) GLOBAL_UNCERTAINTY_ASSIGNED_CONTEXT ( ( #200 ) ) GLOBAL_UNIT_ASSIGNED_CONTEXT ( ( #1, #20, #114 ) ) REPRESENTATION_CONTEXT ( 'NONE', 'WORKASPACE' ) );
#113 = DIRECTION ( 'NONE',  ( -3.491481338843133355E-15, 1.224646799147353207E-16, -1.000000000000000000 ) ) ;
#114 =( NAMED_UNIT ( * ) SI_UNIT ( $, .STERADIAN. ) SOLID_ANGLE_UNIT ( ) );
#115 = DIRECTION ( 'NONE',  ( 4.275831445896958607E-31, 1.000000000000000000, 1.224646799147353207E-16 ) ) ;
#116 = VERTEX_POINT ( 'NONE', #80 ) ;
#117 = LOCAL_TIME ( 11, 8, 57.00000000000000000, #90 ) ;
#118 = ORIENTED_EDGE ( 'NONE', *, *, #110, .T. ) ;
#119 = SECURITY_CLASSIFICATION_LEVEL ( 'unclassified' ) ;
#120 = EDGE_LOOP ( 'NONE', ( #183 ) ) ;
#121 = PERSON_AND_ORGANIZATION ( #14, #49 ) ;
#122 = APPROVAL ( #74, 'UNSPECIFIED' ) ;
#123 = APPROVAL_PERSON_ORGANIZATION ( #55, #39, #163 ) ;
#124 = CC_DESIGN_PERSON_AND_ORGANIZATION_ASSIGNMENT ( #121, #91, ( #48 ) ) ;
#125 = AXIS2_PLACEMENT_3D ( 'NONE', #30, #12, #202 ) ;
#126 = FACE_OUTER_BOUND ( 'NONE', #182, .T. ) ;
#127 = MANIFOLD_SOLID_BREP ( 'Corps-Déplacer/Copier1[1]', #70 ) ;
#128 = DIRECTION ( 'NONE',  ( -3.491481338843133355E-15, 1.224646799147353207E-16, -1.000000000000000000 ) ) ;
#129 = DIRECTION ( 'NONE',  ( -3.491481338843133355E-15, 1.224646799147353207E-16, -1.000000000000000000 ) ) ;
#130 = CIRCLE ( 'NONE', #125, 1.750000000000000000 ) ;
#131 = DIRECTION ( 'NONE',  ( -3.491481338843133355E-15, 1.224646799147353207E-16, -1.000000000000000000 ) ) ;
#132 = APPROVAL_STATUS ( 'not_yet_approved' ) ;
#133 = CC_DESIGN_DATE_AND_TIME_ASSIGNMENT ( #168, #153, ( #48 ) ) ;
#134 = APPROVAL_ROLE ( '' ) ;
#135 = CALENDAR_DATE ( 2021, 12, 11 ) ;
#136 = ADVANCED_FACE ( 'NONE', ( #126 ), #159, .F. ) ;
#137 = APPROVAL_STATUS ( 'not_yet_approved' ) ;
#138 = PRODUCT_DEFINITION_SHAPE ( 'NONE', 'NONE',  #48 ) ;
#139 = ADVANCED_BREP_SHAPE_REPRESENTATION ( '34761', ( #127, #60, #149 ), #112 ) ;
#140 = FACE_OUTER_BOUND ( 'NONE', #151, .T. ) ;
#141 = ADVANCED_FACE ( 'NONE', ( #100 ), #50, .T. ) ;
#142 = AXIS2_PLACEMENT_3D ( 'NONE', #67, #158, #191 ) ;
#143 = AXIS2_PLACEMENT_3D ( 'NONE', #190, #3, #161 ) ;
#144 = CARTESIAN_POINT ( 'NONE',  ( 4.189777606611760026E-14, 1.749999999999998446, 12.00000000000000000 ) ) ;
#145 = FACE_OUTER_BOUND ( 'NONE', #42, .T. ) ;
#146 = ADVANCED_FACE ( 'NONE', ( #145, #66 ), #172, .T. ) ;
#147 = PLANE ( 'NONE',  #187 ) ;
#148 = DIRECTION ( 'NONE',  ( 4.275831445896958607E-31, 1.000000000000000000, 1.224646799147353207E-16 ) ) ;
#149 = AXIS2_PLACEMENT_3D ( 'NONE', #52, #62, #18 ) ;
#150 = DATE_AND_TIME ( #165, #193 ) ;
#151 = EDGE_LOOP ( 'NONE', ( #84 ) ) ;
#152 = PERSON_AND_ORGANIZATION ( #14, #49 ) ;
#153 = DATE_TIME_ROLE ( 'creation_date' ) ;
#154 = AXIS2_PLACEMENT_3D ( 'NONE', #36, #129, #63 ) ;
#155 = DIRECTION ( 'NONE',  ( 0.0000000000000000000, 1.000000000000000000, 0.0000000000000000000 ) ) ;
#156 = APPLICATION_CONTEXT ( 'configuration controlled 3d designs of mechanical parts and assemblies' ) ;
#157 = CARTESIAN_POINT ( 'NONE',  ( 0.0000000000000000000, 0.0000000000000000000, 0.0000000000000000000 ) ) ;
#158 = DIRECTION ( 'NONE',  ( 3.491481338843133355E-15, -1.224646799147353207E-16, 1.000000000000000000 ) ) ;
#159 = PLANE ( 'NONE',  #142 ) ;
#160 = PRODUCT_RELATED_PRODUCT_CATEGORY ( 'detail', '', ( #32 ) ) ;
#161 = DIRECTION ( 'NONE',  ( 4.275831445896958607E-31, 1.000000000000000000, 1.224646799147353207E-16 ) ) ;
#162 = FACE_OUTER_BOUND ( 'NONE', #24, .T. ) ;
#163 = APPROVAL_ROLE ( '' ) ;
#164 = PERSON_AND_ORGANIZATION ( #14, #49 ) ;
#165 = CALENDAR_DATE ( 2021, 12, 11 ) ;
#166 = ORIENTED_EDGE ( 'NONE', *, *, #110, .F. ) ;
#167 = CARTESIAN_POINT ( 'NONE',  ( 0.0000000000000000000, 0.0000000000000000000, 0.0000000000000000000 ) ) ;
#168 = DATE_AND_TIME ( #22, #86 ) ;
#169 = SECURITY_CLASSIFICATION ( '', '', #119 ) ;
#170 = CYLINDRICAL_SURFACE ( 'NONE', #194, 1.750000000000000000 ) ;
#171 = CC_DESIGN_PERSON_AND_ORGANIZATION_ASSIGNMENT ( #45, #6, ( #32 ) ) ;
#172 = CONICAL_SURFACE ( 'NONE', #198, 1.450000000000001066, 0.7853981633974482790 ) ;
#173 = VERTEX_POINT ( 'NONE', #98 ) ;
#174 = CC_DESIGN_APPROVAL ( #122, ( #48 ) ) ;
#175 = CC_DESIGN_PERSON_AND_ORGANIZATION_ASSIGNMENT ( #9, #197, ( #169 ) ) ;
#176 = DIRECTION ( 'NONE',  ( 0.0000000000000000000, 1.000000000000000000, 0.0000000000000000000 ) ) ;
#177 = FACE_OUTER_BOUND ( 'NONE', #87, .T. ) ;
#178 = DIRECTION ( 'NONE',  ( 4.275831445896958607E-31, 1.000000000000000000, 1.224646799147353207E-16 ) ) ;
#179 = CIRCLE ( 'NONE', #92, 1.750000000000000000 ) ;
#180 = SHAPE_DEFINITION_REPRESENTATION ( #138, #139 ) ;
#181 = EDGE_CURVE ( 'NONE', #173, #173, #54, .T. ) ;
#182 = EDGE_LOOP ( 'NONE', ( #118 ) ) ;
#183 = ORIENTED_EDGE ( 'NONE', *, *, #15, .T. ) ;
#184 = DATE_AND_TIME ( #135, #59 ) ;
#185 = CARTESIAN_POINT ( 'NONE',  ( 4.189777606611760026E-14, 1.312289809829123491E-32, 12.00000000000000000 ) ) ;
#186 = CIRCLE ( 'NONE', #10, 1.450000000000001066 ) ;
#187 = AXIS2_PLACEMENT_3D ( 'NONE', #40, #128, #115 ) ;
#188 = CLOSED_SHELL ( 'NONE', ( #141, #51, #46 ) ) ;
#189 = DIRECTION ( 'NONE',  ( -3.491481338843133355E-15, 1.224646799147353207E-16, -1.000000000000000000 ) ) ;
#190 = CARTESIAN_POINT ( 'NONE',  ( -3.741352515159839000E-31, 1.312289809829125407E-32, -1.071565949253934149E-16 ) ) ;
#191 = DIRECTION ( 'NONE',  ( -4.275831445896958607E-31, -1.000000000000000000, -1.224646799147353207E-16 ) ) ;
#192 = DIRECTION ( 'NONE',  ( -3.491481338843133355E-15, 1.224646799147353207E-16, -1.000000000000000000 ) ) ;
#193 = LOCAL_TIME ( 11, 8, 57.00000000000000000, #85 ) ;
#194 = AXIS2_PLACEMENT_3D ( 'NONE', #157, #97, #178 ) ;
#195 = DATE_TIME_ROLE ( 'classification_date' ) ;
#196 = APPROVAL_DATE_TIME ( #69, #31 ) ;
#197 = PERSON_AND_ORGANIZATION_ROLE ( 'classification_officer' ) ;
#198 = AXIS2_PLACEMENT_3D ( 'NONE', #17, #192, #16 ) ;
#199 = EDGE_LOOP ( 'NONE', ( #105 ) ) ;
#200 = UNCERTAINTY_MEASURE_WITH_UNIT (LENGTH_MEASURE( 1.000000000000000082E-05 ), #1, 'distance_accuracy_value', 'NONE');
#201 = CALENDAR_DATE ( 2021, 12, 11 ) ;
#202 = DIRECTION ( 'NONE',  ( 4.275831445896958607E-31, 1.000000000000000000, 1.224646799147353207E-16 ) ) ;
#203 = APPROVAL_PERSON_ORGANIZATION ( #164, #31, #134 ) ;
ENDSEC;
END-ISO-10303-21;
