ISO-10303-21;
HEADER;
FILE_DESCRIPTION (( 'STEP AP203' ),
    '1' );
FILE_NAME ('34760.step',
    '2021-11-09T08:31:31',
    ( '' ),
    ( '' ),
    'SwSTEP 2.0',
    'SolidWorks 2019',
    '' );
FILE_SCHEMA (( 'CONFIG_CONTROL_DESIGN' ));
ENDSEC;

DATA;
#1 = CARTESIAN_POINT ( 'NONE',  ( 1.326762908760390423E-13, -4.653657836759941941E-15, 38.00000000000000000 ) ) ;
#2 = MANIFOLD_SOLID_BREP ( 'Corps-Déplacer/Copier1[2]', #119 ) ;
#3 = CARTESIAN_POINT ( 'NONE',  ( -1.282753647887883141E-30, 4.499294129124560428E-32, -3.673952467157995687E-16 ) ) ;
#4 = CC_DESIGN_SECURITY_CLASSIFICATION ( #18, ( #86 ) ) ;
#5 = APPROVAL_DATE_TIME ( #45, #53 ) ;
#6 = DATE_AND_TIME ( #33, #44 ) ;
#7 = CALENDAR_DATE ( 2021, 9, 11 ) ;
#8 = AXIS2_PLACEMENT_3D ( 'NONE', #3, #85, #69 ) ;
#9 = AXIS2_PLACEMENT_3D ( 'NONE', #158, #168, #16 ) ;
#10 = ORIENTED_EDGE ( 'NONE', *, *, #115, .T. ) ;
#11 = CC_DESIGN_PERSON_AND_ORGANIZATION_ASSIGNMENT ( #21, #133, ( #18 ) ) ;
#12 = PERSON_AND_ORGANIZATION ( #34, #147 ) ;
#13 = CARTESIAN_POINT ( 'NONE',  ( 4.189777606611760026E-14, 1.312289809829119933E-32, 12.00000000000000000 ) ) ;
#14 = AXIS2_PLACEMENT_3D ( 'NONE', #161, #124, #27 ) ;
#15 = DIRECTION ( 'NONE',  ( 0.0000000000000000000, 1.000000000000000000, 0.0000000000000000000 ) ) ;
#16 = DIRECTION ( 'NONE',  ( 0.0000000000000000000, 1.000000000000000000, 0.0000000000000000000 ) ) ;
#17 = CARTESIAN_POINT ( 'NONE',  ( 4.189777606611760026E-14, -1.469576158976823947E-15, 12.00000000000000000 ) ) ;
#18 = SECURITY_CLASSIFICATION ( '', '', #192 ) ;
#19 = CARTESIAN_POINT ( 'NONE',  ( 4.189777606611760026E-14, -1.469576158976823947E-15, 12.00000000000000000 ) ) ;
#20 = VERTEX_POINT ( 'NONE', #189 ) ;
#21 = PERSON_AND_ORGANIZATION ( #34, #147 ) ;
#22 = FACE_OUTER_BOUND ( 'NONE', #37, .T. ) ;
#23 = PERSON_AND_ORGANIZATION ( #34, #147 ) ;
#24 = DIRECTION ( 'NONE',  ( 3.491481338843133355E-15, -1.224646799147353207E-16, 1.000000000000000000 ) ) ;
#25 = CARTESIAN_POINT ( 'NONE',  ( 4.189777606611760026E-14, 1.749999999999994005, 12.00000000000000000 ) ) ;
#26 = AXIS2_PLACEMENT_3D ( 'NONE', #61, #63, #72 ) ;
#27 = DIRECTION ( 'NONE',  ( 4.275831445896958607E-31, 1.000000000000000000, 1.224646799147353207E-16 ) ) ;
#28 = DIRECTION ( 'NONE',  ( 0.0000000000000000000, 1.000000000000000000, 0.0000000000000000000 ) ) ;
#29 = APPLICATION_CONTEXT ( 'configuration controlled 3d designs of mechanical parts and assemblies' ) ;
#30 = DIRECTION ( 'NONE',  ( -3.491481338843133355E-15, 1.224646799147353207E-16, -1.000000000000000000 ) ) ;
#31 = PERSON_AND_ORGANIZATION ( #34, #147 ) ;
#32 = CC_DESIGN_APPROVAL ( #84, ( #42 ) ) ;
#33 = CALENDAR_DATE ( 2021, 9, 11 ) ;
#34 = PERSON ( 'UNSPECIFIED', 'UNSPECIFIED', 'UNSPECIFIED', ('UNSPECIFIED'), ('UNSPECIFIED'), ('UNSPECIFIED') ) ;
#35 = AXIS2_PLACEMENT_3D ( 'NONE', #184, #154, #166 ) ;
#36 = PERSON_AND_ORGANIZATION ( #34, #147 ) ;
#37 = EDGE_LOOP ( 'NONE', ( #51 ) ) ;
#38 = EDGE_LOOP ( 'NONE', ( #125 ) ) ;
#39 =( NAMED_UNIT ( * ) PLANE_ANGLE_UNIT ( ) SI_UNIT ( $, .RADIAN. ) );
#40 = FACE_OUTER_BOUND ( 'NONE', #152, .T. ) ;
#41 =( NAMED_UNIT ( * ) SI_UNIT ( $, .STERADIAN. ) SOLID_ANGLE_UNIT ( ) );
#42 = PRODUCT_DEFINITION ( 'UNKNOWN', '', #86, #127 ) ;
#43 = DIRECTION ( 'NONE',  ( -3.491481338843133355E-15, 1.224646799147353207E-16, -1.000000000000000000 ) ) ;
#44 = LOCAL_TIME ( 9, 31, 31.00000000000000000, #46 ) ;
#45 = DATE_AND_TIME ( #162, #169 ) ;
#46 = COORDINATED_UNIVERSAL_TIME_OFFSET ( 1, 0, .AHEAD. ) ;
#47 = APPLICATION_CONTEXT ( 'configuration controlled 3d designs of mechanical parts and assemblies' ) ;
#48 = CALENDAR_DATE ( 2021, 9, 11 ) ;
#49 = CC_DESIGN_DATE_AND_TIME_ASSIGNMENT ( #170, #98, ( #42 ) ) ;
#50 = APPLICATION_PROTOCOL_DEFINITION ( 'international standard', 'config_control_design', 1994, #29 ) ;
#51 = ORIENTED_EDGE ( 'NONE', *, *, #182, .F. ) ;
#52 = EDGE_LOOP ( 'NONE', ( #95 ) ) ;
#53 = APPROVAL ( #157, 'UNSPECIFIED' ) ;
#54 = PLANE ( 'NONE',  #131 ) ;
#55 = ORIENTED_EDGE ( 'NONE', *, *, #182, .T. ) ;
#56 = APPROVAL_PERSON_ORGANIZATION ( #12, #84, #198 ) ;
#57 = CARTESIAN_POINT ( 'NONE',  ( 0.0000000000000000000, 0.0000000000000000000, 0.0000000000000000000 ) ) ;
#58 = CC_DESIGN_PERSON_AND_ORGANIZATION_ASSIGNMENT ( #31, #64, ( #86 ) ) ;
#59 = CYLINDRICAL_SURFACE ( 'NONE', #197, 1.749999999999997113 ) ;
#60 = AXIS2_PLACEMENT_3D ( 'NONE', #17, #190, #28 ) ;
#61 = CARTESIAN_POINT ( 'NONE',  ( 4.189777606611760026E-14, 1.312289809829119933E-32, 12.00000000000000000 ) ) ;
#62 = PERSON_AND_ORGANIZATION ( #34, #147 ) ;
#63 = DIRECTION ( 'NONE',  ( 3.491481338843133355E-15, -1.224646799147353207E-16, 1.000000000000000000 ) ) ;
#64 = PERSON_AND_ORGANIZATION_ROLE ( 'design_supplier' ) ;
#65 = EDGE_LOOP ( 'NONE', ( #117 ) ) ;
#66 = PERSON_AND_ORGANIZATION_ROLE ( 'creator' ) ;
#67 = CC_DESIGN_DATE_AND_TIME_ASSIGNMENT ( #116, #78, ( #18 ) ) ;
#68 = APPROVAL_DATE_TIME ( #102, #84 ) ;
#69 = DIRECTION ( 'NONE',  ( 4.275831445896958607E-31, 1.000000000000000000, 1.224646799147353207E-16 ) ) ;
#70 = PLANE ( 'NONE',  #171 ) ;
#71 = FACE_OUTER_BOUND ( 'NONE', #99, .T. ) ;
#72 = DIRECTION ( 'NONE',  ( -4.275831445896958607E-31, -1.000000000000000000, -1.224646799147353207E-16 ) ) ;
#73 = EDGE_CURVE ( 'NONE', #175, #175, #94, .T. ) ;
#74 = CIRCLE ( 'NONE', #8, 1.749999999999994005 ) ;
#75 = CIRCLE ( 'NONE', #160, 1.349999999999998979 ) ;
#76 = CARTESIAN_POINT ( 'NONE',  ( 1.326762908760390423E-13, 1.012337853296746222E-32, 38.00000000000000000 ) ) ;
#77 = CIRCLE ( 'NONE', #109, 1.749999999999995559 ) ;
#78 = DATE_TIME_ROLE ( 'classification_date' ) ;
#79 = PRODUCT_RELATED_PRODUCT_CATEGORY ( 'detail', '', ( #177 ) ) ;
#80 = CONICAL_SURFACE ( 'NONE', #113, 1.349999999999998979, 0.7853981633974597143 ) ;
#81 = ADVANCED_FACE ( 'NONE', ( #22 ), #70, .T. ) ;
#82 = UNCERTAINTY_MEASURE_WITH_UNIT (LENGTH_MEASURE( 1.000000000000000082E-05 ), #122, 'distance_accuracy_value', 'NONE');
#83 = PERSON_AND_ORGANIZATION ( #34, #147 ) ;
#84 = APPROVAL ( #185, 'UNSPECIFIED' ) ;
#85 = DIRECTION ( 'NONE',  ( -3.491481338843133355E-15, 1.224646799147353207E-16, -1.000000000000000000 ) ) ;
#86 = PRODUCT_DEFINITION_FORMATION_WITH_SPECIFIED_SOURCE ( 'ANY', '', #177, .NOT_KNOWN. ) ;
#87 = CC_DESIGN_PERSON_AND_ORGANIZATION_ASSIGNMENT ( #36, #66, ( #42 ) ) ;
#88 = DIRECTION ( 'NONE',  ( 0.0000000000000000000, 1.000000000000000000, 0.0000000000000000000 ) ) ;
#89 = VERTEX_POINT ( 'NONE', #159 ) ;
#90 = VERTEX_POINT ( 'NONE', #25 ) ;
#91 = PERSON_AND_ORGANIZATION_ROLE ( 'creator' ) ;
#92 = APPROVAL_PERSON_ORGANIZATION ( #62, #179, #194 ) ;
#93 = SHAPE_DEFINITION_REPRESENTATION ( #112, #114 ) ;
#94 = CIRCLE ( 'NONE', #9, 1.749999999999998668 ) ;
#95 = ORIENTED_EDGE ( 'NONE', *, *, #137, .F. ) ;
#96 = EDGE_LOOP ( 'NONE', ( #100 ) ) ;
#97 = ORIENTED_EDGE ( 'NONE', *, *, #172, .T. ) ;
#98 = DATE_TIME_ROLE ( 'creation_date' ) ;
#99 = EDGE_LOOP ( 'NONE', ( #136 ) ) ;
#100 = ORIENTED_EDGE ( 'NONE', *, *, #73, .T. ) ;
#101 =( GEOMETRIC_REPRESENTATION_CONTEXT ( 3 ) GLOBAL_UNCERTAINTY_ASSIGNED_CONTEXT ( ( #82 ) ) GLOBAL_UNIT_ASSIGNED_CONTEXT ( ( #122, #39, #41 ) ) REPRESENTATION_CONTEXT ( 'NONE', 'WORKASPACE' ) );
#102 = DATE_AND_TIME ( #48, #176 ) ;
#103 = CARTESIAN_POINT ( 'NONE',  ( -6.413768239439415703E-31, 2.249647064562280214E-32, -1.836976233578997843E-16 ) ) ;
#104 = CLOSED_SHELL ( 'NONE', ( #129, #134, #186, #153 ) ) ;
#105 = FACE_OUTER_BOUND ( 'NONE', #106, .T. ) ;
#106 = EDGE_LOOP ( 'NONE', ( #121 ) ) ;
#107 = CARTESIAN_POINT ( 'NONE',  ( 1.312796983405018394E-13, 1.749999999999994227, 37.60000000000000853 ) ) ;
#108 = ADVANCED_FACE ( 'NONE', ( #120 ), #54, .F. ) ;
#109 = AXIS2_PLACEMENT_3D ( 'NONE', #19, #111, #15 ) ;
#110 = FACE_OUTER_BOUND ( 'NONE', #38, .T. ) ;
#111 = DIRECTION ( 'NONE',  ( -3.491481338843133355E-15, 1.224646799147353207E-16, -1.000000000000000000 ) ) ;
#112 = PRODUCT_DEFINITION_SHAPE ( 'NONE', 'NONE',  #42 ) ;
#113 = AXIS2_PLACEMENT_3D ( 'NONE', #1, #30, #88 ) ;
#114 = ADVANCED_BREP_SHAPE_REPRESENTATION ( '34760', ( #165, #2, #35 ), #101 ) ;
#115 = EDGE_CURVE ( 'NONE', #20, #20, #75, .T. ) ;
#116 = DATE_AND_TIME ( #7, #142 ) ;
#117 = ORIENTED_EDGE ( 'NONE', *, *, #115, .F. ) ;
#118 = CC_DESIGN_PERSON_AND_ORGANIZATION_ASSIGNMENT ( #181, #91, ( #86 ) ) ;
#119 = CLOSED_SHELL ( 'NONE', ( #108, #150, #81 ) ) ;
#120 = FACE_OUTER_BOUND ( 'NONE', #183, .T. ) ;
#121 = ORIENTED_EDGE ( 'NONE', *, *, #137, .T. ) ;
#122 =( LENGTH_UNIT ( ) NAMED_UNIT ( * ) SI_UNIT ( .MILLI., .METRE. ) );
#123 = DIRECTION ( 'NONE',  ( -4.275831445896958607E-31, -1.000000000000000000, -1.224646799147353207E-16 ) ) ;
#124 = DIRECTION ( 'NONE',  ( -3.491481338843133355E-15, 1.224646799147353207E-16, -1.000000000000000000 ) ) ;
#125 = ORIENTED_EDGE ( 'NONE', *, *, #172, .F. ) ;
#126 = FACE_OUTER_BOUND ( 'NONE', #65, .T. ) ;
#127 = DESIGN_CONTEXT ( 'detailed design', #47, 'design' ) ;
#128 = FACE_BOUND ( 'NONE', #196, .T. ) ;
#129 = ADVANCED_FACE ( 'NONE', ( #105 ), #149, .F. ) ;
#130 = CC_DESIGN_APPROVAL ( #179, ( #18 ) ) ;
#131 = AXIS2_PLACEMENT_3D ( 'NONE', #103, #24, #123 ) ;
#132 = COORDINATED_UNIVERSAL_TIME_OFFSET ( 1, 0, .AHEAD. ) ;
#133 = PERSON_AND_ORGANIZATION_ROLE ( 'classification_officer' ) ;
#134 = ADVANCED_FACE ( 'NONE', ( #146, #174 ), #59, .T. ) ;
#135 = APPROVAL_PERSON_ORGANIZATION ( #23, #53, #163 ) ;
#136 = ORIENTED_EDGE ( 'NONE', *, *, #73, .F. ) ;
#137 = EDGE_CURVE ( 'NONE', #90, #90, #77, .T. ) ;
#138 = CALENDAR_DATE ( 2021, 9, 11 ) ;
#139 = DIRECTION ( 'NONE',  ( -4.275831445896958607E-31, -1.000000000000000000, -1.224646799147353207E-16 ) ) ;
#140 = COORDINATED_UNIVERSAL_TIME_OFFSET ( 1, 0, .AHEAD. ) ;
#141 = DIRECTION ( 'NONE',  ( -3.491481338843133355E-15, 1.224646799147353207E-16, -1.000000000000000000 ) ) ;
#142 = LOCAL_TIME ( 9, 31, 31.00000000000000000, #151 ) ;
#143 = PLANE ( 'NONE',  #164 ) ;
#144 = DIRECTION ( 'NONE',  ( 4.275831445896958607E-31, 1.000000000000000000, 1.224646799147353454E-16 ) ) ;
#145 = CARTESIAN_POINT ( 'NONE',  ( 4.189777606611760026E-14, 1.749999999999994005, 12.00000000000000000 ) ) ;
#146 = FACE_OUTER_BOUND ( 'NONE', #52, .T. ) ;
#147 = ORGANIZATION ( 'UNSPECIFIED', 'UNSPECIFIED', '' ) ;
#148 = DIRECTION ( 'NONE',  ( 4.275831445896958607E-31, 1.000000000000000000, 1.224646799147353207E-16 ) ) ;
#149 = PLANE ( 'NONE',  #26 ) ;
#150 = ADVANCED_FACE ( 'NONE', ( #110, #40 ), #173, .T. ) ;
#151 = COORDINATED_UNIVERSAL_TIME_OFFSET ( 1, 0, .AHEAD. ) ;
#152 = EDGE_LOOP ( 'NONE', ( #55 ) ) ;
#153 = ADVANCED_FACE ( 'NONE', ( #126 ), #143, .F. ) ;
#154 = DIRECTION ( 'NONE',  ( 0.0000000000000000000, 0.0000000000000000000, 1.000000000000000000 ) ) ;
#155 = CC_DESIGN_PERSON_AND_ORGANIZATION_ASSIGNMENT ( #83, #167, ( #177 ) ) ;
#156 = MECHANICAL_CONTEXT ( 'NONE', #29, 'mechanical' ) ;
#157 = APPROVAL_STATUS ( 'not_yet_approved' ) ;
#158 = CARTESIAN_POINT ( 'NONE',  ( 1.312796983405018394E-13, -4.604671964794048513E-15, 37.60000000000000853 ) ) ;
#159 = CARTESIAN_POINT ( 'NONE',  ( -5.344831448559179682E-31, 1.749999999999994005, -1.530820568650134785E-16 ) ) ;
#160 = AXIS2_PLACEMENT_3D ( 'NONE', #188, #141, #200 ) ;
#161 = CARTESIAN_POINT ( 'NONE',  ( 0.0000000000000000000, 0.0000000000000000000, 0.0000000000000000000 ) ) ;
#162 = CALENDAR_DATE ( 2021, 9, 11 ) ;
#163 = APPROVAL_ROLE ( '' ) ;
#164 = AXIS2_PLACEMENT_3D ( 'NONE', #76, #191, #148 ) ;
#165 = MANIFOLD_SOLID_BREP ( 'Corps-Déplacer/Copier1[1]', #104 ) ;
#166 = DIRECTION ( 'NONE',  ( 1.000000000000000000, 0.0000000000000000000, 0.0000000000000000000 ) ) ;
#167 = PERSON_AND_ORGANIZATION_ROLE ( 'design_owner' ) ;
#168 = DIRECTION ( 'NONE',  ( -3.491481338843133355E-15, 1.224646799147353207E-16, -1.000000000000000000 ) ) ;
#169 = LOCAL_TIME ( 9, 31, 31.00000000000000000, #132 ) ;
#170 = DATE_AND_TIME ( #138, #180 ) ;
#171 = AXIS2_PLACEMENT_3D ( 'NONE', #13, #203, #139 ) ;
#172 = EDGE_CURVE ( 'NONE', #89, #89, #74, .T. ) ;
#173 = CYLINDRICAL_SURFACE ( 'NONE', #14, 1.749999999999994671 ) ;
#174 = FACE_OUTER_BOUND ( 'NONE', #96, .T. ) ;
#175 = VERTEX_POINT ( 'NONE', #107 ) ;
#176 = LOCAL_TIME ( 9, 31, 31.00000000000000000, #140 ) ;
#177 = PRODUCT ( '34760', '34760', '', ( #156 ) ) ;
#178 = APPROVAL_STATUS ( 'not_yet_approved' ) ;
#179 = APPROVAL ( #178, 'UNSPECIFIED' ) ;
#180 = LOCAL_TIME ( 9, 31, 31.00000000000000000, #187 ) ;
#181 = PERSON_AND_ORGANIZATION ( #34, #147 ) ;
#182 = EDGE_CURVE ( 'NONE', #202, #202, #195, .T. ) ;
#183 = EDGE_LOOP ( 'NONE', ( #97 ) ) ;
#184 = CARTESIAN_POINT ( 'NONE',  ( 0.0000000000000000000, 0.0000000000000000000, 0.0000000000000000000 ) ) ;
#185 = APPROVAL_STATUS ( 'not_yet_approved' ) ;
#186 = ADVANCED_FACE ( 'NONE', ( #71, #128 ), #80, .T. ) ;
#187 = COORDINATED_UNIVERSAL_TIME_OFFSET ( 1, 0, .AHEAD. ) ;
#188 = CARTESIAN_POINT ( 'NONE',  ( 1.326762908760390423E-13, -4.653657836759941941E-15, 38.00000000000000000 ) ) ;
#189 = CARTESIAN_POINT ( 'NONE',  ( 1.326762908760390423E-13, 1.349999999999994538, 38.00000000000000000 ) ) ;
#190 = DIRECTION ( 'NONE',  ( -3.491481338843133355E-15, 1.224646799147353207E-16, -1.000000000000000000 ) ) ;
#191 = DIRECTION ( 'NONE',  ( -3.491481338843133355E-15, 1.224646799147353207E-16, -1.000000000000000000 ) ) ;
#192 = SECURITY_CLASSIFICATION_LEVEL ( 'unclassified' ) ;
#193 = APPROVAL_DATE_TIME ( #6, #179 ) ;
#194 = APPROVAL_ROLE ( '' ) ;
#195 = CIRCLE ( 'NONE', #60, 1.749999999999995559 ) ;
#196 = EDGE_LOOP ( 'NONE', ( #10 ) ) ;
#197 = AXIS2_PLACEMENT_3D ( 'NONE', #57, #43, #144 ) ;
#198 = APPROVAL_ROLE ( '' ) ;
#199 = APPLICATION_PROTOCOL_DEFINITION ( 'international standard', 'config_control_design', 1994, #47 ) ;
#200 = DIRECTION ( 'NONE',  ( 0.0000000000000000000, 1.000000000000000000, 0.0000000000000000000 ) ) ;
#201 = CC_DESIGN_APPROVAL ( #53, ( #86 ) ) ;
#202 = VERTEX_POINT ( 'NONE', #145 ) ;
#203 = DIRECTION ( 'NONE',  ( 3.491481338843133355E-15, -1.224646799147353207E-16, 1.000000000000000000 ) ) ;
ENDSEC;
END-ISO-10303-21;
