ISO-10303-21;
HEADER;
FILE_DESCRIPTION (( 'STEP AP203' ),
    '1' );
FILE_NAME ('34754.step',
    '2021-10-15T13:34:42',
    ( '' ),
    ( '' ),
    'SwSTEP 2.0',
    'SolidWorks 2019',
    '' );
FILE_SCHEMA (( 'CONFIG_CONTROL_DESIGN' ));
ENDSEC;

DATA;
#1 =( GEOMETRIC_REPRESENTATION_CONTEXT ( 3 ) GLOBAL_UNCERTAINTY_ASSIGNED_CONTEXT ( ( #151 ) ) GLOBAL_UNIT_ASSIGNED_CONTEXT ( ( #172, #120, #203 ) ) REPRESENTATION_CONTEXT ( 'NONE', 'WORKASPACE' ) );
#2 = CARTESIAN_POINT ( 'NONE',  ( 1.082359215041371340E-13, -3.796405077356795115E-15, 31.00000000000000000 ) ) ;
#3 = ADVANCED_FACE ( 'NONE', ( #20 ), #152, .T. ) ;
#4 = ORIENTED_EDGE ( 'NONE', *, *, #195, .T. ) ;
#5 = DIRECTION ( 'NONE',  ( 3.491481338843133355E-15, -1.224646799147353207E-16, 1.000000000000000000 ) ) ;
#6 = LOCAL_TIME ( 15, 34, 42.00000000000000000, #13 ) ;
#7 = EDGE_LOOP ( 'NONE', ( #109 ) ) ;
#8 = FACE_OUTER_BOUND ( 'NONE', #51, .T. ) ;
#9 = DIRECTION ( 'NONE',  ( 0.0000000000000000000, 1.000000000000000000, 0.0000000000000000000 ) ) ;
#10 = DIRECTION ( 'NONE',  ( -3.491481338843133355E-15, 1.224646799147353207E-16, -1.000000000000000000 ) ) ;
#11 = CC_DESIGN_PERSON_AND_ORGANIZATION_ASSIGNMENT ( #28, #39, ( #175 ) ) ;
#12 = PERSON ( 'UNSPECIFIED', 'UNSPECIFIED', 'UNSPECIFIED', ('UNSPECIFIED'), ('UNSPECIFIED'), ('UNSPECIFIED') ) ;
#13 = COORDINATED_UNIVERSAL_TIME_OFFSET ( 1, 0, .AHEAD. ) ;
#14 = ADVANCED_BREP_SHAPE_REPRESENTATION ( '34754', ( #118, #56, #21 ), #1 ) ;
#15 = APPROVAL_STATUS ( 'not_yet_approved' ) ;
#16 = APPROVAL_STATUS ( 'not_yet_approved' ) ;
#17 = AXIS2_PLACEMENT_3D ( 'NONE', #170, #83, #9 ) ;
#18 = CALENDAR_DATE ( 2021, 15, 10 ) ;
#19 = ORIENTED_EDGE ( 'NONE', *, *, #44, .F. ) ;
#20 = FACE_OUTER_BOUND ( 'NONE', #129, .T. ) ;
#21 = AXIS2_PLACEMENT_3D ( 'NONE', #189, #190, #103 ) ;
#22 = CLOSED_SHELL ( 'NONE', ( #123, #78, #3 ) ) ;
#23 = CARTESIAN_POINT ( 'NONE',  ( 1.082359215041371340E-13, 2.474603641392059579E-32, 31.00000000000000000 ) ) ;
#24 = FACE_BOUND ( 'NONE', #7, .T. ) ;
#25 = DATE_AND_TIME ( #100, #30 ) ;
#26 = DIRECTION ( 'NONE',  ( -3.491481338843133355E-15, 1.224646799147353207E-16, -1.000000000000000000 ) ) ;
#27 = DATE_TIME_ROLE ( 'classification_date' ) ;
#28 = PERSON_AND_ORGANIZATION ( #12, #177 ) ;
#29 = PERSON_AND_ORGANIZATION ( #12, #177 ) ;
#30 = LOCAL_TIME ( 15, 34, 42.00000000000000000, #37 ) ;
#31 = EDGE_CURVE ( 'NONE', #85, #85, #149, .T. ) ;
#32 = ORIENTED_EDGE ( 'NONE', *, *, #195, .F. ) ;
#33 = EDGE_LOOP ( 'NONE', ( #32 ) ) ;
#34 = ORIENTED_EDGE ( 'NONE', *, *, #54, .F. ) ;
#35 = CC_DESIGN_DATE_AND_TIME_ASSIGNMENT ( #169, #187, ( #175 ) ) ;
#36 = FACE_OUTER_BOUND ( 'NONE', #110, .T. ) ;
#37 = COORDINATED_UNIVERSAL_TIME_OFFSET ( 1, 0, .AHEAD. ) ;
#38 = CARTESIAN_POINT ( 'NONE',  ( 1.082359215041371340E-13, -3.796405077356795115E-15, 31.00000000000000000 ) ) ;
#39 = PERSON_AND_ORGANIZATION_ROLE ( 'creator' ) ;
#40 = DIRECTION ( 'NONE',  ( 4.275831445896958607E-31, 1.000000000000000000, 1.224646799147353207E-16 ) ) ;
#41 = PERSON_AND_ORGANIZATION ( #12, #177 ) ;
#42 = PERSON_AND_ORGANIZATION ( #12, #177 ) ;
#43 = CIRCLE ( 'NONE', #141, 3.300000000000005151 ) ;
#44 = EDGE_CURVE ( 'NONE', #173, #173, #136, .T. ) ;
#45 = APPLICATION_PROTOCOL_DEFINITION ( 'international standard', 'config_control_design', 1994, #130 ) ;
#46 = DATE_AND_TIME ( #18, #98 ) ;
#47 = PRODUCT_DEFINITION_SHAPE ( 'NONE', 'NONE',  #175 ) ;
#48 = ORIENTED_EDGE ( 'NONE', *, *, #139, .F. ) ;
#49 = EDGE_LOOP ( 'NONE', ( #179 ) ) ;
#50 = AXIS2_PLACEMENT_3D ( 'NONE', #197, #156, #137 ) ;
#51 = EDGE_LOOP ( 'NONE', ( #34 ) ) ;
#52 = CARTESIAN_POINT ( 'NONE',  ( 2.444036937190193601E-13, -8.572527594031472993E-15, 70.00000000000000000 ) ) ;
#53 = LOCAL_TIME ( 15, 34, 42.00000000000000000, #84 ) ;
#54 = EDGE_CURVE ( 'NONE', #124, #124, #43, .T. ) ;
#55 = CARTESIAN_POINT ( 'NONE',  ( 4.193624426754920959E-15, -1.470925441850773740E-16, 1.201101773078482315 ) ) ;
#56 = MANIFOLD_SOLID_BREP ( 'Corps-Déplacer/Copier1[2]', #22 ) ;
#57 = CARTESIAN_POINT ( 'NONE',  ( 4.193624426754920959E-15, -1.470925441850773740E-16, 1.201101773078482315 ) ) ;
#58 = CARTESIAN_POINT ( 'NONE',  ( 2.444036937190193601E-13, 2.599999999999996536, 70.00000000000000000 ) ) ;
#59 = DIRECTION ( 'NONE',  ( 0.0000000000000000000, 1.000000000000000000, 0.0000000000000000000 ) ) ;
#60 = PERSON_AND_ORGANIZATION_ROLE ( 'classification_officer' ) ;
#61 = CC_DESIGN_DATE_AND_TIME_ASSIGNMENT ( #25, #27, ( #116 ) ) ;
#62 = AXIS2_PLACEMENT_3D ( 'NONE', #80, #10, #135 ) ;
#63 = SECURITY_CLASSIFICATION_LEVEL ( 'unclassified' ) ;
#64 = VERTEX_POINT ( 'NONE', #105 ) ;
#65 = DIRECTION ( 'NONE',  ( -3.491481338843133355E-15, 1.224646799147353207E-16, -1.000000000000000000 ) ) ;
#66 = DIRECTION ( 'NONE',  ( -3.491481338843133355E-15, 1.224646799147353207E-16, -1.000000000000000000 ) ) ;
#67 = AXIS2_PLACEMENT_3D ( 'NONE', #90, #5, #133 ) ;
#68 = APPLICATION_CONTEXT ( 'configuration controlled 3d designs of mechanical parts and assemblies' ) ;
#69 = PLANE ( 'NONE',  #122 ) ;
#70 = CC_DESIGN_PERSON_AND_ORGANIZATION_ASSIGNMENT ( #29, #60, ( #116 ) ) ;
#71 = APPROVAL_DATE_TIME ( #200, #91 ) ;
#72 = PERSON_AND_ORGANIZATION ( #12, #177 ) ;
#73 = CARTESIAN_POINT ( 'NONE',  ( 1.082359215041371340E-13, 3.299999999999996714, 31.00000000000000000 ) ) ;
#74 = AXIS2_PLACEMENT_3D ( 'NONE', #23, #82, #96 ) ;
#75 = APPLICATION_PROTOCOL_DEFINITION ( 'international standard', 'config_control_design', 1994, #68 ) ;
#76 = ORIENTED_EDGE ( 'NONE', *, *, #44, .T. ) ;
#77 = PRODUCT_RELATED_PRODUCT_CATEGORY ( 'detail', '', ( #128 ) ) ;
#78 = ADVANCED_FACE ( 'NONE', ( #134, #181 ), #79, .T. ) ;
#79 = CYLINDRICAL_SURFACE ( 'NONE', #62, 3.299999999999998046 ) ;
#80 = CARTESIAN_POINT ( 'NONE',  ( 0.0000000000000000000, 0.0000000000000000000, 0.0000000000000000000 ) ) ;
#81 = CC_DESIGN_APPROVAL ( #91, ( #185 ) ) ;
#82 = DIRECTION ( 'NONE',  ( 3.491481338843133355E-15, -1.224646799147353207E-16, 1.000000000000000000 ) ) ;
#83 = DIRECTION ( 'NONE',  ( -3.491481338843133355E-15, 1.224646799147353207E-16, -1.000000000000000000 ) ) ;
#84 = COORDINATED_UNIVERSAL_TIME_OFFSET ( 1, 0, .AHEAD. ) ;
#85 = VERTEX_POINT ( 'NONE', #58 ) ;
#86 = MECHANICAL_CONTEXT ( 'NONE', #68, 'mechanical' ) ;
#87 = PERSON_AND_ORGANIZATION_ROLE ( 'design_owner' ) ;
#88 = APPROVAL_PERSON_ORGANIZATION ( #42, #91, #160 ) ;
#89 = APPROVAL_ROLE ( '' ) ;
#90 = CARTESIAN_POINT ( 'NONE',  ( 1.082359215041371340E-13, 2.474603641392059579E-32, 31.00000000000000000 ) ) ;
#91 = APPROVAL ( #117, 'UNSPECIFIED' ) ;
#92 = EDGE_LOOP ( 'NONE', ( #4 ) ) ;
#93 = CIRCLE ( 'NONE', #174, 3.300000000000000266 ) ;
#94 = EDGE_LOOP ( 'NONE', ( #166 ) ) ;
#95 = ADVANCED_FACE ( 'NONE', ( #196, #138 ), #184, .T. ) ;
#96 = DIRECTION ( 'NONE',  ( -4.275831445896958607E-31, -1.000000000000000000, -1.224646799147353207E-16 ) ) ;
#97 = APPROVAL ( #15, 'UNSPECIFIED' ) ;
#98 = LOCAL_TIME ( 15, 34, 42.00000000000000000, #147 ) ;
#99 = DIRECTION ( 'NONE',  ( 0.0000000000000000000, 1.000000000000000000, 0.0000000000000000000 ) ) ;
#100 = CALENDAR_DATE ( 2021, 15, 10 ) ;
#101 = DIRECTION ( 'NONE',  ( -4.668921077302394777E-31, -1.000000000000000000, -1.314184451497582492E-16 ) ) ;
#102 = ADVANCED_FACE ( 'NONE', ( #199 ), #69, .F. ) ;
#103 = DIRECTION ( 'NONE',  ( 1.000000000000000000, 0.0000000000000000000, 0.0000000000000000000 ) ) ;
#104 = CALENDAR_DATE ( 2021, 15, 10 ) ;
#105 = CARTESIAN_POINT ( 'NONE',  ( 1.082359215041371340E-13, 3.299999999999996714, 31.00000000000000000 ) ) ;
#106 = AXIS2_PLACEMENT_3D ( 'NONE', #52, #113, #148 ) ;
#107 = DATE_AND_TIME ( #104, #53 ) ;
#108 = APPROVAL_DATE_TIME ( #46, #155 ) ;
#109 = ORIENTED_EDGE ( 'NONE', *, *, #31, .T. ) ;
#110 = EDGE_LOOP ( 'NONE', ( #76 ) ) ;
#111 = AXIS2_PLACEMENT_3D ( 'NONE', #57, #26, #159 ) ;
#112 = CLOSED_SHELL ( 'NONE', ( #202, #95, #158, #102 ) ) ;
#113 = DIRECTION ( 'NONE',  ( -3.491481338843133355E-15, 1.224646799147353207E-16, -1.000000000000000000 ) ) ;
#114 = DIRECTION ( 'NONE',  ( -3.491481338843133355E-15, 1.224646799147353207E-16, -1.000000000000000000 ) ) ;
#115 = DIRECTION ( 'NONE',  ( -3.491481338843133355E-15, 1.224646799147353207E-16, -1.000000000000000000 ) ) ;
#116 = SECURITY_CLASSIFICATION ( '', '', #63 ) ;
#117 = APPROVAL_STATUS ( 'not_yet_approved' ) ;
#118 = MANIFOLD_SOLID_BREP ( 'Corps-Déplacer/Copier1[1]', #112 ) ;
#119 = COORDINATED_UNIVERSAL_TIME_OFFSET ( 1, 0, .AHEAD. ) ;
#120 =( NAMED_UNIT ( * ) PLANE_ANGLE_UNIT ( ) SI_UNIT ( $, .RADIAN. ) );
#121 = APPROVAL_ROLE ( '' ) ;
#122 = AXIS2_PLACEMENT_3D ( 'NONE', #198, #115, #40 ) ;
#123 = ADVANCED_FACE ( 'NONE', ( #182 ), #132, .T. ) ;
#124 = VERTEX_POINT ( 'NONE', #171 ) ;
#125 = CARTESIAN_POINT ( 'NONE',  ( 4.193624426754922537E-15, 3.299999999999996714, 1.201101773078482760 ) ) ;
#126 = CC_DESIGN_SECURITY_CLASSIFICATION ( #116, ( #185 ) ) ;
#127 = DIRECTION ( 'NONE',  ( 0.0000000000000000000, 1.000000000000000000, 0.0000000000000000000 ) ) ;
#128 = PRODUCT ( '34754', '34754', '', ( #86 ) ) ;
#129 = EDGE_LOOP ( 'NONE', ( #48 ) ) ;
#130 = APPLICATION_CONTEXT ( 'configuration controlled 3d designs of mechanical parts and assemblies' ) ;
#131 = CC_DESIGN_APPROVAL ( #155, ( #175 ) ) ;
#132 = CONICAL_SURFACE ( 'NONE', #157, 3.299999999999996714, 1.221730476396026388 ) ;
#133 = DIRECTION ( 'NONE',  ( -4.275831445896958607E-31, -1.000000000000000000, -1.224646799147353207E-16 ) ) ;
#134 = FACE_OUTER_BOUND ( 'NONE', #33, .T. ) ;
#135 = DIRECTION ( 'NONE',  ( 4.275831445896958607E-31, 1.000000000000000000, 1.224646799147353207E-16 ) ) ;
#136 = CIRCLE ( 'NONE', #146, 3.300000000000000266 ) ;
#137 = DIRECTION ( 'NONE',  ( 4.275831445896958607E-31, 1.000000000000000000, 1.224646799147353207E-16 ) ) ;
#138 = FACE_OUTER_BOUND ( 'NONE', #94, .T. ) ;
#139 = EDGE_CURVE ( 'NONE', #64, #64, #93, .T. ) ;
#140 = PERSON_AND_ORGANIZATION_ROLE ( 'creator' ) ;
#141 = AXIS2_PLACEMENT_3D ( 'NONE', #176, #65, #59 ) ;
#142 = CC_DESIGN_PERSON_AND_ORGANIZATION_ASSIGNMENT ( #41, #161, ( #185 ) ) ;
#143 = SHAPE_DEFINITION_REPRESENTATION ( #47, #14 ) ;
#144 = CC_DESIGN_PERSON_AND_ORGANIZATION_ASSIGNMENT ( #72, #140, ( #185 ) ) ;
#145 = APPROVAL_PERSON_ORGANIZATION ( #164, #155, #89 ) ;
#146 = AXIS2_PLACEMENT_3D ( 'NONE', #2, #66, #127 ) ;
#147 = COORDINATED_UNIVERSAL_TIME_OFFSET ( 1, 0, .AHEAD. ) ;
#148 = DIRECTION ( 'NONE',  ( 0.0000000000000000000, 1.000000000000000000, 0.0000000000000000000 ) ) ;
#149 = CIRCLE ( 'NONE', #106, 2.600000000000004974 ) ;
#150 = ORIENTED_EDGE ( 'NONE', *, *, #31, .F. ) ;
#151 = UNCERTAINTY_MEASURE_WITH_UNIT (LENGTH_MEASURE( 1.000000000000000082E-05 ), #172, 'distance_accuracy_value', 'NONE');
#152 = PLANE ( 'NONE',  #67 ) ;
#153 = CC_DESIGN_APPROVAL ( #97, ( #116 ) ) ;
#154 = APPROVAL_PERSON_ORGANIZATION ( #201, #97, #121 ) ;
#155 = APPROVAL ( #16, 'UNSPECIFIED' ) ;
#156 = DIRECTION ( 'NONE',  ( -3.491481338843133355E-15, 1.224646799147353207E-16, -1.000000000000000000 ) ) ;
#157 = AXIS2_PLACEMENT_3D ( 'NONE', #55, #167, #101 ) ;
#158 = ADVANCED_FACE ( 'NONE', ( #8, #24 ), #192, .T. ) ;
#159 = DIRECTION ( 'NONE',  ( 4.668921077302394777E-31, 1.000000000000000000, 1.314184451497582492E-16 ) ) ;
#160 = APPROVAL_ROLE ( '' ) ;
#161 = PERSON_AND_ORGANIZATION_ROLE ( 'design_supplier' ) ;
#162 = CALENDAR_DATE ( 2021, 15, 10 ) ;
#163 = VERTEX_POINT ( 'NONE', #125 ) ;
#164 = PERSON_AND_ORGANIZATION ( #12, #177 ) ;
#165 = LOCAL_TIME ( 15, 34, 42.00000000000000000, #119 ) ;
#166 = ORIENTED_EDGE ( 'NONE', *, *, #54, .T. ) ;
#167 = DIRECTION ( 'NONE',  ( 3.491481338843133355E-15, -1.224646799147353207E-16, 1.000000000000000000 ) ) ;
#168 = CIRCLE ( 'NONE', #111, 3.299999999999996714 ) ;
#169 = DATE_AND_TIME ( #183, #165 ) ;
#170 = CARTESIAN_POINT ( 'NONE',  ( 2.444036937190193601E-13, -8.572527594031472993E-15, 70.00000000000000000 ) ) ;
#171 = CARTESIAN_POINT ( 'NONE',  ( 2.419596567818291352E-13, 3.299999999999996714, 69.29999999999999716 ) ) ;
#172 =( LENGTH_UNIT ( ) NAMED_UNIT ( * ) SI_UNIT ( .MILLI., .METRE. ) );
#173 = VERTEX_POINT ( 'NONE', #73 ) ;
#174 = AXIS2_PLACEMENT_3D ( 'NONE', #38, #114, #99 ) ;
#175 = PRODUCT_DEFINITION ( 'UNKNOWN', '', #185, #194 ) ;
#176 = CARTESIAN_POINT ( 'NONE',  ( 2.419596567818291352E-13, -8.486802318091157127E-15, 69.29999999999999716 ) ) ;
#177 = ORGANIZATION ( 'UNSPECIFIED', 'UNSPECIFIED', '' ) ;
#178 = EDGE_LOOP ( 'NONE', ( #150 ) ) ;
#179 = ORIENTED_EDGE ( 'NONE', *, *, #139, .T. ) ;
#180 = PLANE ( 'NONE',  #74 ) ;
#181 = FACE_OUTER_BOUND ( 'NONE', #49, .T. ) ;
#182 = FACE_OUTER_BOUND ( 'NONE', #92, .T. ) ;
#183 = CALENDAR_DATE ( 2021, 15, 10 ) ;
#184 = CYLINDRICAL_SURFACE ( 'NONE', #50, 3.300000000000002487 ) ;
#185 = PRODUCT_DEFINITION_FORMATION_WITH_SPECIFIED_SOURCE ( 'ANY', '', #128, .NOT_KNOWN. ) ;
#186 = APPROVAL_DATE_TIME ( #107, #97 ) ;
#187 = DATE_TIME_ROLE ( 'creation_date' ) ;
#188 = CC_DESIGN_PERSON_AND_ORGANIZATION_ASSIGNMENT ( #191, #87, ( #128 ) ) ;
#189 = CARTESIAN_POINT ( 'NONE',  ( 0.0000000000000000000, 0.0000000000000000000, 0.0000000000000000000 ) ) ;
#190 = DIRECTION ( 'NONE',  ( 0.0000000000000000000, 0.0000000000000000000, 1.000000000000000000 ) ) ;
#191 = PERSON_AND_ORGANIZATION ( #12, #177 ) ;
#192 = CONICAL_SURFACE ( 'NONE', #17, 2.600000000000004974, 0.7853981633974439491 ) ;
#193 = EDGE_LOOP ( 'NONE', ( #19 ) ) ;
#194 = DESIGN_CONTEXT ( 'detailed design', #130, 'design' ) ;
#195 = EDGE_CURVE ( 'NONE', #163, #163, #168, .T. ) ;
#196 = FACE_OUTER_BOUND ( 'NONE', #193, .T. ) ;
#197 = CARTESIAN_POINT ( 'NONE',  ( 0.0000000000000000000, 0.0000000000000000000, 0.0000000000000000000 ) ) ;
#198 = CARTESIAN_POINT ( 'NONE',  ( 2.444036937190193601E-13, 1.949687717460405585E-32, 70.00000000000000000 ) ) ;
#199 = FACE_OUTER_BOUND ( 'NONE', #178, .T. ) ;
#200 = DATE_AND_TIME ( #162, #6 ) ;
#201 = PERSON_AND_ORGANIZATION ( #12, #177 ) ;
#202 = ADVANCED_FACE ( 'NONE', ( #36 ), #180, .F. ) ;
#203 =( NAMED_UNIT ( * ) SI_UNIT ( $, .STERADIAN. ) SOLID_ANGLE_UNIT ( ) );
ENDSEC;
END-ISO-10303-21;
