ISO-10303-21;
HEADER;
FILE_DESCRIPTION (( 'STEP AP203' ),
    '1' );
FILE_NAME ('34630.step',
    '2021-11-15T15:37:01',
    ( '' ),
    ( '' ),
    'SwSTEP 2.0',
    'SolidWorks 2019',
    '' );
FILE_SCHEMA (( 'CONFIG_CONTROL_DESIGN' ));
ENDSEC;

DATA;
#1 = PERSON_AND_ORGANIZATION ( #41, #3 ) ;
#2 = CALENDAR_DATE ( 2021, 15, 11 ) ;
#3 = ORGANIZATION ( 'UNSPECIFIED', 'UNSPECIFIED', '' ) ;
#4 = DIRECTION ( 'NONE',  ( -3.491481338843133355E-15, 1.224646799147353207E-16, -1.000000000000000000 ) ) ;
#5 = COORDINATED_UNIVERSAL_TIME_OFFSET ( 1, 0, .AHEAD. ) ;
#6 = CARTESIAN_POINT ( 'NONE',  ( 0.0000000000000000000, 0.0000000000000000000, 0.0000000000000000000 ) ) ;
#7 = VERTEX_POINT ( 'NONE', #42 ) ;
#8 = CARTESIAN_POINT ( 'NONE',  ( 1.745740669421566678E-13, 1.874699728327314073E-32, 50.00000000000000000 ) ) ;
#9 = LOCAL_TIME ( 16, 37, 1.000000000000000000, #5 ) ;
#10 = ORIENTED_EDGE ( 'NONE', *, *, #50, .F. ) ;
#11 = DATE_AND_TIME ( #157, #105 ) ;
#12 = EDGE_LOOP ( 'NONE', ( #126 ) ) ;
#13 = PERSON_AND_ORGANIZATION ( #41, #3 ) ;
#14 = ADVANCED_FACE ( 'NONE', ( #78 ), #17, .F. ) ;
#15 = ORIENTED_EDGE ( 'NONE', *, *, #183, .F. ) ;
#16 = UNCERTAINTY_MEASURE_WITH_UNIT (LENGTH_MEASURE( 1.000000000000000082E-05 ), #140, 'distance_accuracy_value', 'NONE');
#17 = PLANE ( 'NONE',  #35 ) ;
#18 = EDGE_CURVE ( 'NONE', #7, #7, #142, .T. ) ;
#19 =( GEOMETRIC_REPRESENTATION_CONTEXT ( 3 ) GLOBAL_UNCERTAINTY_ASSIGNED_CONTEXT ( ( #16 ) ) GLOBAL_UNIT_ASSIGNED_CONTEXT ( ( #140, #179, #94 ) ) REPRESENTATION_CONTEXT ( 'NONE', 'WORKASPACE' ) );
#20 = PERSON_AND_ORGANIZATION ( #41, #3 ) ;
#21 = DIRECTION ( 'NONE',  ( 0.0000000000000000000, 1.000000000000000000, 0.0000000000000000000 ) ) ;
#22 = FACE_BOUND ( 'NONE', #143, .T. ) ;
#23 = PRODUCT_RELATED_PRODUCT_CATEGORY ( 'detail', '', ( #181 ) ) ;
#24 = DIRECTION ( 'NONE',  ( -3.491481338843133355E-15, 1.224646799147353207E-16, -1.000000000000000000 ) ) ;
#25 = MANIFOLD_SOLID_BREP ( 'Corps-Déplacer/Copier1[1]', #66 ) ;
#26 = AXIS2_PLACEMENT_3D ( 'NONE', #136, #160, #88 ) ;
#27 = CARTESIAN_POINT ( 'NONE',  ( 5.586370142149013368E-14, 2.999999999999998224, 16.00000000000000000 ) ) ;
#28 = MANIFOLD_SOLID_BREP ( 'Corps-Déplacer/Copier1[2]', #102 ) ;
#29 = CC_DESIGN_APPROVAL ( #152, ( #40 ) ) ;
#30 = VERTEX_POINT ( 'NONE', #27 ) ;
#31 = APPROVAL_DATE_TIME ( #106, #152 ) ;
#32 = ADVANCED_FACE ( 'NONE', ( #162, #116 ), #148, .T. ) ;
#33 = ORIENTED_EDGE ( 'NONE', *, *, #191, .F. ) ;
#34 = APPROVAL_STATUS ( 'not_yet_approved' ) ;
#35 = AXIS2_PLACEMENT_3D ( 'NONE', #8, #150, #178 ) ;
#36 = DATE_AND_TIME ( #2, #68 ) ;
#37 = APPROVAL_ROLE ( '' ) ;
#38 = ADVANCED_FACE ( 'NONE', ( #22, #91 ), #49, .T. ) ;
#39 = APPROVAL_DATE_TIME ( #36, #65 ) ;
#40 = SECURITY_CLASSIFICATION ( '', '', #159 ) ;
#41 = PERSON ( 'UNSPECIFIED', 'UNSPECIFIED', 'UNSPECIFIED', ('UNSPECIFIED'), ('UNSPECIFIED'), ('UNSPECIFIED') ) ;
#42 = CARTESIAN_POINT ( 'NONE',  ( 1.728283262727351074E-13, 2.999999999999988898, 49.50000000000000000 ) ) ;
#43 = CC_DESIGN_PERSON_AND_ORGANIZATION_ASSIGNMENT ( #20, #169, ( #181 ) ) ;
#44 = CARTESIAN_POINT ( 'NONE',  ( 5.586370142149013368E-14, -1.959434878635765131E-15, 16.00000000000000000 ) ) ;
#45 = CARTESIAN_POINT ( 'NONE',  ( 0.0000000000000000000, 0.0000000000000000000, 0.0000000000000000000 ) ) ;
#46 = CYLINDRICAL_SURFACE ( 'NONE', #53, 3.000000000000000000 ) ;
#47 = CALENDAR_DATE ( 2021, 15, 11 ) ;
#48 = ORIENTED_EDGE ( 'NONE', *, *, #158, .F. ) ;
#49 = CONICAL_SURFACE ( 'NONE', #164, 2.999999999999994671, 0.7853981633974482790 ) ;
#50 = EDGE_CURVE ( 'NONE', #124, #124, #89, .T. ) ;
#51 = EDGE_LOOP ( 'NONE', ( #145 ) ) ;
#52 = DIRECTION ( 'NONE',  ( -3.491481338843133355E-15, 1.224646799147353207E-16, -1.000000000000000000 ) ) ;
#53 = AXIS2_PLACEMENT_3D ( 'NONE', #6, #58, #92 ) ;
#54 = PRODUCT_DEFINITION_SHAPE ( 'NONE', 'NONE',  #60 ) ;
#55 = CC_DESIGN_PERSON_AND_ORGANIZATION_ASSIGNMENT ( #1, #67, ( #129 ) ) ;
#56 = EDGE_LOOP ( 'NONE', ( #48 ) ) ;
#57 = MECHANICAL_CONTEXT ( 'NONE', #114, 'mechanical' ) ;
#58 = DIRECTION ( 'NONE',  ( -3.491481338843133355E-15, 1.224646799147353207E-16, -1.000000000000000000 ) ) ;
#59 = DIRECTION ( 'NONE',  ( -3.491481338843133355E-15, 1.224646799147353207E-16, -1.000000000000000000 ) ) ;
#60 = PRODUCT_DEFINITION ( 'UNKNOWN', '', #129, #115 ) ;
#61 = PERSON_AND_ORGANIZATION ( #41, #3 ) ;
#62 = AXIS2_PLACEMENT_3D ( 'NONE', #103, #194, #99 ) ;
#63 = ADVANCED_FACE ( 'NONE', ( #73, #192 ), #46, .T. ) ;
#64 = APPROVAL_ROLE ( '' ) ;
#65 = APPROVAL ( #203, 'UNSPECIFIED' ) ;
#66 = CLOSED_SHELL ( 'NONE', ( #97, #32, #38, #14 ) ) ;
#67 = PERSON_AND_ORGANIZATION_ROLE ( 'design_supplier' ) ;
#68 = LOCAL_TIME ( 16, 37, 1.000000000000000000, #110 ) ;
#69 = CALENDAR_DATE ( 2021, 15, 11 ) ;
#70 = ORIENTED_EDGE ( 'NONE', *, *, #183, .T. ) ;
#71 = FACE_OUTER_BOUND ( 'NONE', #182, .T. ) ;
#72 = AXIS2_PLACEMENT_3D ( 'NONE', #100, #59, #121 ) ;
#73 = FACE_OUTER_BOUND ( 'NONE', #128, .T. ) ;
#74 = APPROVAL_DATE_TIME ( #11, #166 ) ;
#75 = ADVANCED_FACE ( 'NONE', ( #119 ), #176, .T. ) ;
#76 = PLANE ( 'NONE',  #201 ) ;
#77 = APPROVAL_STATUS ( 'not_yet_approved' ) ;
#78 = FACE_OUTER_BOUND ( 'NONE', #186, .T. ) ;
#79 = DIRECTION ( 'NONE',  ( 3.491481338843133355E-15, -1.224646799147353207E-16, 1.000000000000000000 ) ) ;
#80 = AXIS2_PLACEMENT_3D ( 'NONE', #85, #188, #174 ) ;
#81 = AXIS2_PLACEMENT_3D ( 'NONE', #45, #93, #195 ) ;
#82 = ADVANCED_BREP_SHAPE_REPRESENTATION ( '34630', ( #25, #28, #80 ), #19 ) ;
#83 = COORDINATED_UNIVERSAL_TIME_OFFSET ( 1, 0, .AHEAD. ) ;
#84 = DATE_TIME_ROLE ( 'creation_date' ) ;
#85 = CARTESIAN_POINT ( 'NONE',  ( 0.0000000000000000000, 0.0000000000000000000, 0.0000000000000000000 ) ) ;
#86 = FACE_OUTER_BOUND ( 'NONE', #56, .T. ) ;
#87 = APPLICATION_PROTOCOL_DEFINITION ( 'international standard', 'config_control_design', 1994, #199 ) ;
#88 = DIRECTION ( 'NONE',  ( 0.0000000000000000000, 1.000000000000000000, 0.0000000000000000000 ) ) ;
#89 = CIRCLE ( 'NONE', #147, 2.500000000000001332 ) ;
#90 = CC_DESIGN_DATE_AND_TIME_ASSIGNMENT ( #146, #131, ( #40 ) ) ;
#91 = FACE_OUTER_BOUND ( 'NONE', #96, .T. ) ;
#92 = DIRECTION ( 'NONE',  ( 4.275831445896959482E-31, 1.000000000000000000, 1.224646799147353207E-16 ) ) ;
#93 = DIRECTION ( 'NONE',  ( -3.491481338843133355E-15, 1.224646799147353207E-16, -1.000000000000000000 ) ) ;
#94 =( NAMED_UNIT ( * ) SI_UNIT ( $, .STERADIAN. ) SOLID_ANGLE_UNIT ( ) );
#95 = APPROVAL_ROLE ( '' ) ;
#96 = EDGE_LOOP ( 'NONE', ( #108 ) ) ;
#97 = ADVANCED_FACE ( 'NONE', ( #71 ), #151, .F. ) ;
#98 = PERSON_AND_ORGANIZATION_ROLE ( 'creator' ) ;
#99 = DIRECTION ( 'NONE',  ( 4.275831445896958607E-31, 1.000000000000000000, 1.224646799147353207E-16 ) ) ;
#100 = CARTESIAN_POINT ( 'NONE',  ( -1.282749433769087757E-30, 4.499279347985572824E-32, -3.673940397442059868E-16 ) ) ;
#101 = CARTESIAN_POINT ( 'NONE',  ( 1.728283262727351074E-13, -6.062001655779398511E-15, 49.50000000000000000 ) ) ;
#102 = CLOSED_SHELL ( 'NONE', ( #75, #63, #113 ) ) ;
#103 = CARTESIAN_POINT ( 'NONE',  ( -6.413747168845438786E-31, 2.249639673992786412E-32, -1.836970198721029934E-16 ) ) ;
#104 = DIRECTION ( 'NONE',  ( -4.275831445896958607E-31, -1.000000000000000000, -1.224646799147353207E-16 ) ) ;
#105 = LOCAL_TIME ( 16, 37, 1.000000000000000000, #117 ) ;
#106 = DATE_AND_TIME ( #47, #135 ) ;
#107 = APPROVAL_PERSON_ORGANIZATION ( #61, #152, #64 ) ;
#108 = ORIENTED_EDGE ( 'NONE', *, *, #18, .F. ) ;
#109 = ORIENTED_EDGE ( 'NONE', *, *, #50, .T. ) ;
#110 = COORDINATED_UNIVERSAL_TIME_OFFSET ( 1, 0, .AHEAD. ) ;
#111 = CIRCLE ( 'NONE', #72, 3.000000000000000000 ) ;
#112 = PERSON_AND_ORGANIZATION ( #41, #3 ) ;
#113 = ADVANCED_FACE ( 'NONE', ( #86 ), #76, .T. ) ;
#114 = APPLICATION_CONTEXT ( 'configuration controlled 3d designs of mechanical parts and assemblies' ) ;
#115 = DESIGN_CONTEXT ( 'detailed design', #199, 'design' ) ;
#116 = FACE_OUTER_BOUND ( 'NONE', #202, .T. ) ;
#117 = COORDINATED_UNIVERSAL_TIME_OFFSET ( 1, 0, .AHEAD. ) ;
#118 = CARTESIAN_POINT ( 'NONE',  ( 5.586370142149013368E-14, 2.249639673992783401E-32, 16.00000000000000000 ) ) ;
#119 = FACE_OUTER_BOUND ( 'NONE', #51, .T. ) ;
#120 = LOCAL_TIME ( 16, 37, 1.000000000000000000, #83 ) ;
#121 = DIRECTION ( 'NONE',  ( 4.275831445896959482E-31, 1.000000000000000000, 1.224646799147353207E-16 ) ) ;
#122 = APPROVAL_PERSON_ORGANIZATION ( #155, #166, #95 ) ;
#123 = CC_DESIGN_DATE_AND_TIME_ASSIGNMENT ( #144, #84, ( #60 ) ) ;
#124 = VERTEX_POINT ( 'NONE', #165 ) ;
#125 = CC_DESIGN_APPROVAL ( #65, ( #129 ) ) ;
#126 = ORIENTED_EDGE ( 'NONE', *, *, #18, .T. ) ;
#127 = PERSON_AND_ORGANIZATION_ROLE ( 'classification_officer' ) ;
#128 = EDGE_LOOP ( 'NONE', ( #170 ) ) ;
#129 = PRODUCT_DEFINITION_FORMATION_WITH_SPECIFIED_SOURCE ( 'ANY', '', #181, .NOT_KNOWN. ) ;
#130 = CARTESIAN_POINT ( 'NONE',  ( 1.745740669421566425E-13, -6.123233995736765296E-15, 49.99999999999999289 ) ) ;
#131 = DATE_TIME_ROLE ( 'classification_date' ) ;
#132 = DIRECTION ( 'NONE',  ( 0.0000000000000000000, 1.000000000000000000, 0.0000000000000000000 ) ) ;
#133 = CALENDAR_DATE ( 2021, 15, 11 ) ;
#134 = DIRECTION ( 'NONE',  ( 0.0000000000000000000, 1.000000000000000000, 0.0000000000000000000 ) ) ;
#135 = LOCAL_TIME ( 16, 37, 1.000000000000000000, #198 ) ;
#136 = CARTESIAN_POINT ( 'NONE',  ( 1.728283262727351074E-13, -6.062001655779398511E-15, 49.50000000000000000 ) ) ;
#137 = DIRECTION ( 'NONE',  ( -4.275831445896958607E-31, -1.000000000000000000, -1.224646799147353207E-16 ) ) ;
#138 = SHAPE_DEFINITION_REPRESENTATION ( #54, #82 ) ;
#139 = APPROVAL_PERSON_ORGANIZATION ( #112, #65, #37 ) ;
#140 =( LENGTH_UNIT ( ) NAMED_UNIT ( * ) SI_UNIT ( .MILLI., .METRE. ) );
#141 = CC_DESIGN_PERSON_AND_ORGANIZATION_ASSIGNMENT ( #184, #127, ( #40 ) ) ;
#142 = CIRCLE ( 'NONE', #26, 2.999999999999994671 ) ;
#143 = EDGE_LOOP ( 'NONE', ( #109 ) ) ;
#144 = DATE_AND_TIME ( #133, #9 ) ;
#145 = ORIENTED_EDGE ( 'NONE', *, *, #191, .T. ) ;
#146 = DATE_AND_TIME ( #69, #120 ) ;
#147 = AXIS2_PLACEMENT_3D ( 'NONE', #130, #4, #132 ) ;
#148 = CYLINDRICAL_SURFACE ( 'NONE', #81, 2.999999999999997335 ) ;
#149 = PERSON_AND_ORGANIZATION ( #41, #3 ) ;
#150 = DIRECTION ( 'NONE',  ( -3.491481338843133355E-15, 1.224646799147353207E-16, -1.000000000000000000 ) ) ;
#151 = PLANE ( 'NONE',  #180 ) ;
#152 = APPROVAL ( #77, 'UNSPECIFIED' ) ;
#153 = VERTEX_POINT ( 'NONE', #168 ) ;
#154 = CC_DESIGN_PERSON_AND_ORGANIZATION_ASSIGNMENT ( #149, #193, ( #60 ) ) ;
#155 = PERSON_AND_ORGANIZATION ( #41, #3 ) ;
#156 = CC_DESIGN_APPROVAL ( #166, ( #60 ) ) ;
#157 = CALENDAR_DATE ( 2021, 15, 11 ) ;
#158 = EDGE_CURVE ( 'NONE', #153, #153, #161, .T. ) ;
#159 = SECURITY_CLASSIFICATION_LEVEL ( 'unclassified' ) ;
#160 = DIRECTION ( 'NONE',  ( -3.491481338843133355E-15, 1.224646799147353207E-16, -1.000000000000000000 ) ) ;
#161 = CIRCLE ( 'NONE', #185, 3.000000000000000444 ) ;
#162 = FACE_OUTER_BOUND ( 'NONE', #12, .T. ) ;
#163 = CARTESIAN_POINT ( 'NONE',  ( 5.586370142149013368E-14, -1.959434878635765131E-15, 16.00000000000000000 ) ) ;
#164 = AXIS2_PLACEMENT_3D ( 'NONE', #101, #24, #21 ) ;
#165 = CARTESIAN_POINT ( 'NONE',  ( 1.745740669421566425E-13, 2.499999999999995115, 49.99999999999999289 ) ) ;
#166 = APPROVAL ( #34, 'UNSPECIFIED' ) ;
#167 = VERTEX_POINT ( 'NONE', #200 ) ;
#168 = CARTESIAN_POINT ( 'NONE',  ( 5.586370142149013368E-14, 2.999999999999998224, 16.00000000000000000 ) ) ;
#169 = PERSON_AND_ORGANIZATION_ROLE ( 'design_owner' ) ;
#170 = ORIENTED_EDGE ( 'NONE', *, *, #158, .T. ) ;
#171 = CIRCLE ( 'NONE', #197, 3.000000000000000444 ) ;
#172 = DIRECTION ( 'NONE',  ( 0.0000000000000000000, 1.000000000000000000, 0.0000000000000000000 ) ) ;
#173 = DIRECTION ( 'NONE',  ( -3.491481338843133355E-15, 1.224646799147353207E-16, -1.000000000000000000 ) ) ;
#174 = DIRECTION ( 'NONE',  ( 1.000000000000000000, 0.0000000000000000000, 0.0000000000000000000 ) ) ;
#175 = CC_DESIGN_SECURITY_CLASSIFICATION ( #40, ( #129 ) ) ;
#176 = PLANE ( 'NONE',  #62 ) ;
#177 = CARTESIAN_POINT ( 'NONE',  ( 5.586370142149013368E-14, 2.249639673992783401E-32, 16.00000000000000000 ) ) ;
#178 = DIRECTION ( 'NONE',  ( 4.275831445896958607E-31, 1.000000000000000000, 1.224646799147353207E-16 ) ) ;
#179 =( NAMED_UNIT ( * ) PLANE_ANGLE_UNIT ( ) SI_UNIT ( $, .RADIAN. ) );
#180 = AXIS2_PLACEMENT_3D ( 'NONE', #177, #189, #104 ) ;
#181 = PRODUCT ( '34630', '34630', '', ( #57 ) ) ;
#182 = EDGE_LOOP ( 'NONE', ( #70 ) ) ;
#183 = EDGE_CURVE ( 'NONE', #30, #30, #171, .T. ) ;
#184 = PERSON_AND_ORGANIZATION ( #41, #3 ) ;
#185 = AXIS2_PLACEMENT_3D ( 'NONE', #44, #52, #134 ) ;
#186 = EDGE_LOOP ( 'NONE', ( #10 ) ) ;
#187 = EDGE_LOOP ( 'NONE', ( #33 ) ) ;
#188 = DIRECTION ( 'NONE',  ( 0.0000000000000000000, 0.0000000000000000000, 1.000000000000000000 ) ) ;
#189 = DIRECTION ( 'NONE',  ( 3.491481338843133355E-15, -1.224646799147353207E-16, 1.000000000000000000 ) ) ;
#190 = APPLICATION_PROTOCOL_DEFINITION ( 'international standard', 'config_control_design', 1994, #114 ) ;
#191 = EDGE_CURVE ( 'NONE', #167, #167, #111, .T. ) ;
#192 = FACE_OUTER_BOUND ( 'NONE', #187, .T. ) ;
#193 = PERSON_AND_ORGANIZATION_ROLE ( 'creator' ) ;
#194 = DIRECTION ( 'NONE',  ( -3.491481338843133355E-15, 1.224646799147353207E-16, -1.000000000000000000 ) ) ;
#195 = DIRECTION ( 'NONE',  ( 4.275831445896958607E-31, 1.000000000000000000, 1.224646799147353207E-16 ) ) ;
#196 = CC_DESIGN_PERSON_AND_ORGANIZATION_ASSIGNMENT ( #13, #98, ( #129 ) ) ;
#197 = AXIS2_PLACEMENT_3D ( 'NONE', #163, #173, #172 ) ;
#198 = COORDINATED_UNIVERSAL_TIME_OFFSET ( 1, 0, .AHEAD. ) ;
#199 = APPLICATION_CONTEXT ( 'configuration controlled 3d designs of mechanical parts and assemblies' ) ;
#200 = CARTESIAN_POINT ( 'NONE',  ( 0.0000000000000000000, 3.000000000000000000, 0.0000000000000000000 ) ) ;
#201 = AXIS2_PLACEMENT_3D ( 'NONE', #118, #79, #137 ) ;
#202 = EDGE_LOOP ( 'NONE', ( #15 ) ) ;
#203 = APPROVAL_STATUS ( 'not_yet_approved' ) ;
ENDSEC;
END-ISO-10303-21;
