ISO-10303-21;
HEADER;
FILE_DESCRIPTION (( 'STEP AP203' ),
    '1' );
FILE_NAME ('34629.step',
    '2021-11-15T15:37:01',
    ( '' ),
    ( '' ),
    'SwSTEP 2.0',
    'SolidWorks 2019',
    '' );
FILE_SCHEMA (( 'CONFIG_CONTROL_DESIGN' ));
ENDSEC;

DATA;
#1 = DIRECTION ( 'NONE',  ( -3.491481338843133355E-15, 1.224646799147353207E-16, -1.000000000000000000 ) ) ;
#2 = AXIS2_PLACEMENT_3D ( 'NONE', #72, #183, #94 ) ;
#3 = EDGE_LOOP ( 'NONE', ( #195 ) ) ;
#4 = DIRECTION ( 'NONE',  ( 0.0000000000000000000, 1.000000000000000000, 0.0000000000000000000 ) ) ;
#5 = EDGE_LOOP ( 'NONE', ( #34 ) ) ;
#6 = PERSON_AND_ORGANIZATION_ROLE ( 'creator' ) ;
#7 = CARTESIAN_POINT ( 'NONE',  ( 4.888073874380386697E-14, -1.714505518806294638E-15, 14.00000000000000000 ) ) ;
#8 = CC_DESIGN_APPROVAL ( #18, ( #95 ) ) ;
#9 = APPROVAL_DATE_TIME ( #105, #193 ) ;
#10 = PLANE ( 'NONE',  #150 ) ;
#11 = SHAPE_DEFINITION_REPRESENTATION ( #168, #47 ) ;
#12 = CC_DESIGN_PERSON_AND_ORGANIZATION_ASSIGNMENT ( #24, #6, ( #95 ) ) ;
#13 = CALENDAR_DATE ( 2021, 15, 11 ) ;
#14 = VERTEX_POINT ( 'NONE', #63 ) ;
#15 = AXIS2_PLACEMENT_3D ( 'NONE', #181, #23, #185 ) ;
#16 = ADVANCED_FACE ( 'NONE', ( #53, #100 ), #26, .T. ) ;
#17 = SECURITY_CLASSIFICATION ( '', '', #135 ) ;
#18 = APPROVAL ( #182, 'UNSPECIFIED' ) ;
#19 = AXIS2_PLACEMENT_3D ( 'NONE', #171, #169, #149 ) ;
#20 = ORIENTED_EDGE ( 'NONE', *, *, #191, .T. ) ;
#21 = APPROVAL_ROLE ( '' ) ;
#22 = COORDINATED_UNIVERSAL_TIME_OFFSET ( 1, 0, .AHEAD. ) ;
#23 = DIRECTION ( 'NONE',  ( -3.491481338843133355E-15, 1.224646799147353207E-16, -1.000000000000000000 ) ) ;
#24 = PERSON_AND_ORGANIZATION ( #115, #128 ) ;
#25 = FACE_OUTER_BOUND ( 'NONE', #80, .T. ) ;
#26 = CONICAL_SURFACE ( 'NONE', #62, 2.499999999999994227, 0.7853981633974518317 ) ;
#27 = APPLICATION_PROTOCOL_DEFINITION ( 'international standard', 'config_control_design', 1994, #123 ) ;
#28 = CARTESIAN_POINT ( 'NONE',  ( 4.888073874380386697E-14, -1.714505518806294638E-15, 14.00000000000000000 ) ) ;
#29 = APPROVAL_ROLE ( '' ) ;
#30 = VERTEX_POINT ( 'NONE', #92 ) ;
#31 = VERTEX_POINT ( 'NONE', #198 ) ;
#32 = AXIS2_PLACEMENT_3D ( 'NONE', #122, #1, #120 ) ;
#33 = CC_DESIGN_PERSON_AND_ORGANIZATION_ASSIGNMENT ( #119, #199, ( #95 ) ) ;
#34 = ORIENTED_EDGE ( 'NONE', *, *, #36, .T. ) ;
#35 = EDGE_LOOP ( 'NONE', ( #133 ) ) ;
#36 = EDGE_CURVE ( 'NONE', #201, #201, #202, .T. ) ;
#37 = PERSON_AND_ORGANIZATION_ROLE ( 'creator' ) ;
#38 = APPROVAL_DATE_TIME ( #134, #96 ) ;
#39 = FACE_OUTER_BOUND ( 'NONE', #148, .T. ) ;
#40 = APPLICATION_CONTEXT ( 'configuration controlled 3d designs of mechanical parts and assemblies' ) ;
#41 = APPROVAL_ROLE ( '' ) ;
#42 = FACE_OUTER_BOUND ( 'NONE', #129, .T. ) ;
#43 = CALENDAR_DATE ( 2021, 15, 11 ) ;
#44 = FACE_OUTER_BOUND ( 'NONE', #35, .T. ) ;
#45 = LOCAL_TIME ( 16, 37, 1.000000000000000000, #22 ) ;
#46 = PLANE ( 'NONE',  #19 ) ;
#47 = ADVANCED_BREP_SHAPE_REPRESENTATION ( '34629', ( #177, #50, #79 ), #77 ) ;
#48 = EDGE_CURVE ( 'NONE', #31, #31, #106, .T. ) ;
#49 =( LENGTH_UNIT ( ) NAMED_UNIT ( * ) SI_UNIT ( .MILLI., .METRE. ) );
#50 = MANIFOLD_SOLID_BREP ( 'Corps-Déplacer/Copier1[2]', #147 ) ;
#51 = CC_DESIGN_DATE_AND_TIME_ASSIGNMENT ( #139, #85, ( #145 ) ) ;
#52 = CC_DESIGN_PERSON_AND_ORGANIZATION_ASSIGNMENT ( #197, #178, ( #126 ) ) ;
#53 = FACE_BOUND ( 'NONE', #3, .T. ) ;
#54 = ADVANCED_FACE ( 'NONE', ( #42, #25 ), #200, .T. ) ;
#55 = EDGE_LOOP ( 'NONE', ( #130 ) ) ;
#56 = ORIENTED_EDGE ( 'NONE', *, *, #36, .F. ) ;
#57 = DIRECTION ( 'NONE',  ( 0.0000000000000000000, 0.0000000000000000000, 1.000000000000000000 ) ) ;
#58 = APPLICATION_PROTOCOL_DEFINITION ( 'international standard', 'config_control_design', 1994, #40 ) ;
#59 = FACE_OUTER_BOUND ( 'NONE', #194, .T. ) ;
#60 = CALENDAR_DATE ( 2021, 15, 11 ) ;
#61 = CARTESIAN_POINT ( 'NONE',  ( 0.0000000000000000000, 2.500000000000000000, 0.0000000000000000000 ) ) ;
#62 = AXIS2_PLACEMENT_3D ( 'NONE', #160, #81, #4 ) ;
#63 = CARTESIAN_POINT ( 'NONE',  ( 1.728283262727351074E-13, 2.499999999999988454, 49.50000000000000000 ) ) ;
#64 = AXIS2_PLACEMENT_3D ( 'NONE', #28, #153, #69 ) ;
#65 = ORIENTED_EDGE ( 'NONE', *, *, #97, .F. ) ;
#66 = LOCAL_TIME ( 16, 37, 1.000000000000000000, #102 ) ;
#67 = CC_DESIGN_PERSON_AND_ORGANIZATION_ASSIGNMENT ( #163, #87, ( #17 ) ) ;
#68 = CALENDAR_DATE ( 2021, 15, 11 ) ;
#69 = DIRECTION ( 'NONE',  ( 0.0000000000000000000, 1.000000000000000000, 0.0000000000000000000 ) ) ;
#70 = CARTESIAN_POINT ( 'NONE',  ( -5.344789307371197820E-31, 1.874699728327322010E-32, -1.530808498934191571E-16 ) ) ;
#71 = PERSON_AND_ORGANIZATION ( #115, #128 ) ;
#72 = CARTESIAN_POINT ( 'NONE',  ( 1.745740669421566425E-13, -6.123233995736765296E-15, 49.99999999999999289 ) ) ;
#73 = CALENDAR_DATE ( 2021, 15, 11 ) ;
#74 = DIRECTION ( 'NONE',  ( 0.0000000000000000000, 1.000000000000000000, 0.0000000000000000000 ) ) ;
#75 = AXIS2_PLACEMENT_3D ( 'NONE', #7, #103, #74 ) ;
#76 = DIRECTION ( 'NONE',  ( -3.491481338843133355E-15, 1.224646799147353207E-16, -1.000000000000000000 ) ) ;
#77 =( GEOMETRIC_REPRESENTATION_CONTEXT ( 3 ) GLOBAL_UNCERTAINTY_ASSIGNED_CONTEXT ( ( #173 ) ) GLOBAL_UNIT_ASSIGNED_CONTEXT ( ( #49, #109, #172 ) ) REPRESENTATION_CONTEXT ( 'NONE', 'WORKASPACE' ) );
#78 = ADVANCED_FACE ( 'NONE', ( #39 ), #118, .F. ) ;
#79 = AXIS2_PLACEMENT_3D ( 'NONE', #170, #57, #166 ) ;
#80 = EDGE_LOOP ( 'NONE', ( #56 ) ) ;
#81 = DIRECTION ( 'NONE',  ( -3.491481338843133355E-15, 1.224646799147353207E-16, -1.000000000000000000 ) ) ;
#82 = DESIGN_CONTEXT ( 'detailed design', #40, 'design' ) ;
#83 = COORDINATED_UNIVERSAL_TIME_OFFSET ( 1, 0, .AHEAD. ) ;
#84 = ADVANCED_FACE ( 'NONE', ( #140 ), #10, .T. ) ;
#85 = DATE_TIME_ROLE ( 'creation_date' ) ;
#86 = CARTESIAN_POINT ( 'NONE',  ( 0.0000000000000000000, 0.0000000000000000000, 0.0000000000000000000 ) ) ;
#87 = PERSON_AND_ORGANIZATION_ROLE ( 'classification_officer' ) ;
#88 = DIRECTION ( 'NONE',  ( 4.275831445896958607E-31, 1.000000000000000000, 1.224646799147353207E-16 ) ) ;
#89 = COORDINATED_UNIVERSAL_TIME_OFFSET ( 1, 0, .AHEAD. ) ;
#90 = DIRECTION ( 'NONE',  ( 0.0000000000000000000, 1.000000000000000000, 0.0000000000000000000 ) ) ;
#91 = PERSON_AND_ORGANIZATION ( #115, #128 ) ;
#92 = CARTESIAN_POINT ( 'NONE',  ( 4.888073874380386697E-14, 2.499999999999998224, 14.00000000000000000 ) ) ;
#93 = CC_DESIGN_DATE_AND_TIME_ASSIGNMENT ( #137, #187, ( #17 ) ) ;
#94 = DIRECTION ( 'NONE',  ( 0.0000000000000000000, 1.000000000000000000, 0.0000000000000000000 ) ) ;
#95 = PRODUCT_DEFINITION_FORMATION_WITH_SPECIFIED_SOURCE ( 'ANY', '', #126, .NOT_KNOWN. ) ;
#96 = APPROVAL ( #184, 'UNSPECIFIED' ) ;
#97 = EDGE_CURVE ( 'NONE', #30, #30, #112, .T. ) ;
#98 = ORIENTED_EDGE ( 'NONE', *, *, #97, .T. ) ;
#99 = APPROVAL_PERSON_ORGANIZATION ( #121, #96, #21 ) ;
#100 = FACE_OUTER_BOUND ( 'NONE', #55, .T. ) ;
#101 = CARTESIAN_POINT ( 'NONE',  ( 0.0000000000000000000, 0.0000000000000000000, 0.0000000000000000000 ) ) ;
#102 = COORDINATED_UNIVERSAL_TIME_OFFSET ( 1, 0, .AHEAD. ) ;
#103 = DIRECTION ( 'NONE',  ( -3.491481338843133355E-15, 1.224646799147353207E-16, -1.000000000000000000 ) ) ;
#104 = EDGE_CURVE ( 'NONE', #14, #14, #144, .T. ) ;
#105 = DATE_AND_TIME ( #13, #45 ) ;
#106 = CIRCLE ( 'NONE', #2, 1.999999999999997335 ) ;
#107 = FACE_OUTER_BOUND ( 'NONE', #176, .T. ) ;
#108 = DIRECTION ( 'NONE',  ( -3.491481338843133355E-15, 1.224646799147353207E-16, -1.000000000000000000 ) ) ;
#109 =( NAMED_UNIT ( * ) PLANE_ANGLE_UNIT ( ) SI_UNIT ( $, .RADIAN. ) );
#110 = APPROVAL_PERSON_ORGANIZATION ( #71, #18, #41 ) ;
#111 = CC_DESIGN_PERSON_AND_ORGANIZATION_ASSIGNMENT ( #91, #37, ( #145 ) ) ;
#112 = CIRCLE ( 'NONE', #75, 2.500000000000000000 ) ;
#113 = PRODUCT_RELATED_PRODUCT_CATEGORY ( 'detail', '', ( #126 ) ) ;
#114 = AXIS2_PLACEMENT_3D ( 'NONE', #164, #167, #155 ) ;
#115 = PERSON ( 'UNSPECIFIED', 'UNSPECIFIED', 'UNSPECIFIED', ('UNSPECIFIED'), ('UNSPECIFIED'), ('UNSPECIFIED') ) ;
#116 = COORDINATED_UNIVERSAL_TIME_OFFSET ( 1, 0, .AHEAD. ) ;
#117 = APPROVAL_STATUS ( 'not_yet_approved' ) ;
#118 = PLANE ( 'NONE',  #114 ) ;
#119 = PERSON_AND_ORGANIZATION ( #115, #128 ) ;
#120 = DIRECTION ( 'NONE',  ( 4.275831445896958607E-31, 1.000000000000000000, 1.224646799147353207E-16 ) ) ;
#121 = PERSON_AND_ORGANIZATION ( #115, #128 ) ;
#122 = CARTESIAN_POINT ( 'NONE',  ( -1.068957861474239564E-30, 3.749399456654644020E-32, -3.061616997868383141E-16 ) ) ;
#123 = APPLICATION_CONTEXT ( 'configuration controlled 3d designs of mechanical parts and assemblies' ) ;
#124 = PLANE ( 'NONE',  #15 ) ;
#125 = ADVANCED_FACE ( 'NONE', ( #59 ), #124, .F. ) ;
#126 = PRODUCT ( '34629', '34629', '', ( #151 ) ) ;
#127 = LOCAL_TIME ( 16, 37, 1.000000000000000000, #116 ) ;
#128 = ORGANIZATION ( 'UNSPECIFIED', 'UNSPECIFIED', '' ) ;
#129 = EDGE_LOOP ( 'NONE', ( #98 ) ) ;
#130 = ORIENTED_EDGE ( 'NONE', *, *, #104, .F. ) ;
#131 = AXIS2_PLACEMENT_3D ( 'NONE', #86, #76, #136 ) ;
#132 = ADVANCED_FACE ( 'NONE', ( #157, #44 ), #203, .T. ) ;
#133 = ORIENTED_EDGE ( 'NONE', *, *, #191, .F. ) ;
#134 = DATE_AND_TIME ( #43, #186 ) ;
#135 = SECURITY_CLASSIFICATION_LEVEL ( 'unclassified' ) ;
#136 = DIRECTION ( 'NONE',  ( 4.275831445896959482E-31, 1.000000000000000000, 1.224646799147353207E-16 ) ) ;
#137 = DATE_AND_TIME ( #60, #127 ) ;
#138 = DIRECTION ( 'NONE',  ( -3.491481338843133355E-15, 1.224646799147353207E-16, -1.000000000000000000 ) ) ;
#139 = DATE_AND_TIME ( #68, #190 ) ;
#140 = FACE_OUTER_BOUND ( 'NONE', #5, .T. ) ;
#141 = APPROVAL_DATE_TIME ( #154, #18 ) ;
#142 = DIRECTION ( 'NONE',  ( 4.275831445896958607E-31, 1.000000000000000000, 1.224646799147353207E-16 ) ) ;
#143 = CARTESIAN_POINT ( 'NONE',  ( 4.888073874380386697E-14, 2.499999999999998224, 14.00000000000000000 ) ) ;
#144 = CIRCLE ( 'NONE', #174, 2.499999999999994227 ) ;
#145 = PRODUCT_DEFINITION ( 'UNKNOWN', '', #95, #82 ) ;
#146 = ORIENTED_EDGE ( 'NONE', *, *, #104, .T. ) ;
#147 = CLOSED_SHELL ( 'NONE', ( #84, #54, #165 ) ) ;
#148 = EDGE_LOOP ( 'NONE', ( #20 ) ) ;
#149 = DIRECTION ( 'NONE',  ( -4.275831445896958607E-31, -1.000000000000000000, -1.224646799147353207E-16 ) ) ;
#150 = AXIS2_PLACEMENT_3D ( 'NONE', #70, #138, #88 ) ;
#151 = MECHANICAL_CONTEXT ( 'NONE', #123, 'mechanical' ) ;
#152 = CARTESIAN_POINT ( 'NONE',  ( 1.728283262727351074E-13, -6.062001655779398511E-15, 49.50000000000000000 ) ) ;
#153 = DIRECTION ( 'NONE',  ( -3.491481338843133355E-15, 1.224646799147353207E-16, -1.000000000000000000 ) ) ;
#154 = DATE_AND_TIME ( #73, #66 ) ;
#155 = DIRECTION ( 'NONE',  ( -4.275831445896958607E-31, -1.000000000000000000, -1.224646799147353207E-16 ) ) ;
#156 = CLOSED_SHELL ( 'NONE', ( #78, #132, #16, #125 ) ) ;
#157 = FACE_OUTER_BOUND ( 'NONE', #161, .T. ) ;
#158 = CC_DESIGN_APPROVAL ( #193, ( #145 ) ) ;
#159 = ORIENTED_EDGE ( 'NONE', *, *, #48, .F. ) ;
#160 = CARTESIAN_POINT ( 'NONE',  ( 1.728283262727351074E-13, -6.062001655779398511E-15, 49.50000000000000000 ) ) ;
#161 = EDGE_LOOP ( 'NONE', ( #146 ) ) ;
#162 = CC_DESIGN_APPROVAL ( #96, ( #17 ) ) ;
#163 = PERSON_AND_ORGANIZATION ( #115, #128 ) ;
#164 = CARTESIAN_POINT ( 'NONE',  ( 4.888073874380386697E-14, 1.874699728327319273E-32, 14.00000000000000000 ) ) ;
#165 = ADVANCED_FACE ( 'NONE', ( #107 ), #46, .T. ) ;
#166 = DIRECTION ( 'NONE',  ( 1.000000000000000000, 0.0000000000000000000, 0.0000000000000000000 ) ) ;
#167 = DIRECTION ( 'NONE',  ( 3.491481338843133355E-15, -1.224646799147353207E-16, 1.000000000000000000 ) ) ;
#168 = PRODUCT_DEFINITION_SHAPE ( 'NONE', 'NONE',  #145 ) ;
#169 = DIRECTION ( 'NONE',  ( 3.491481338843133355E-15, -1.224646799147353207E-16, 1.000000000000000000 ) ) ;
#170 = CARTESIAN_POINT ( 'NONE',  ( 0.0000000000000000000, 0.0000000000000000000, 0.0000000000000000000 ) ) ;
#171 = CARTESIAN_POINT ( 'NONE',  ( 4.888073874380386697E-14, 1.874699728327319273E-32, 14.00000000000000000 ) ) ;
#172 =( NAMED_UNIT ( * ) SI_UNIT ( $, .STERADIAN. ) SOLID_ANGLE_UNIT ( ) );
#173 = UNCERTAINTY_MEASURE_WITH_UNIT (LENGTH_MEASURE( 1.000000000000000082E-05 ), #49, 'distance_accuracy_value', 'NONE');
#174 = AXIS2_PLACEMENT_3D ( 'NONE', #152, #108, #90 ) ;
#175 = APPROVAL_PERSON_ORGANIZATION ( #180, #193, #29 ) ;
#176 = EDGE_LOOP ( 'NONE', ( #65 ) ) ;
#177 = MANIFOLD_SOLID_BREP ( 'Corps-Déplacer/Copier1[1]', #156 ) ;
#178 = PERSON_AND_ORGANIZATION_ROLE ( 'design_owner' ) ;
#179 = CIRCLE ( 'NONE', #64, 2.500000000000000000 ) ;
#180 = PERSON_AND_ORGANIZATION ( #115, #128 ) ;
#181 = CARTESIAN_POINT ( 'NONE',  ( 1.745740669421566678E-13, 1.499759782661846660E-32, 50.00000000000000000 ) ) ;
#182 = APPROVAL_STATUS ( 'not_yet_approved' ) ;
#183 = DIRECTION ( 'NONE',  ( -3.491481338843133355E-15, 1.224646799147353207E-16, -1.000000000000000000 ) ) ;
#184 = APPROVAL_STATUS ( 'not_yet_approved' ) ;
#185 = DIRECTION ( 'NONE',  ( 4.275831445896958607E-31, 1.000000000000000000, 1.224646799147353207E-16 ) ) ;
#186 = LOCAL_TIME ( 16, 37, 1.000000000000000000, #83 ) ;
#187 = DATE_TIME_ROLE ( 'classification_date' ) ;
#188 = DIRECTION ( 'NONE',  ( -3.491481338843133355E-15, 1.224646799147353207E-16, -1.000000000000000000 ) ) ;
#189 = VERTEX_POINT ( 'NONE', #143 ) ;
#190 = LOCAL_TIME ( 16, 37, 1.000000000000000000, #89 ) ;
#191 = EDGE_CURVE ( 'NONE', #189, #189, #179, .T. ) ;
#192 = CC_DESIGN_SECURITY_CLASSIFICATION ( #17, ( #95 ) ) ;
#193 = APPROVAL ( #117, 'UNSPECIFIED' ) ;
#194 = EDGE_LOOP ( 'NONE', ( #159 ) ) ;
#195 = ORIENTED_EDGE ( 'NONE', *, *, #48, .T. ) ;
#196 = AXIS2_PLACEMENT_3D ( 'NONE', #101, #188, #142 ) ;
#197 = PERSON_AND_ORGANIZATION ( #115, #128 ) ;
#198 = CARTESIAN_POINT ( 'NONE',  ( 1.745740669421566425E-13, 1.999999999999991340, 49.99999999999999289 ) ) ;
#199 = PERSON_AND_ORGANIZATION_ROLE ( 'design_supplier' ) ;
#200 = CYLINDRICAL_SURFACE ( 'NONE', #196, 2.500000000000000000 ) ;
#201 = VERTEX_POINT ( 'NONE', #61 ) ;
#202 = CIRCLE ( 'NONE', #32, 2.500000000000000000 ) ;
#203 = CYLINDRICAL_SURFACE ( 'NONE', #131, 2.499999999999996891 ) ;
ENDSEC;
END-ISO-10303-21;
