ISO-10303-21;
HEADER;
FILE_DESCRIPTION (( 'STEP AP203' ),
    '1' );
FILE_NAME ('34627.step',
    '2021-11-12T10:08:56',
    ( '' ),
    ( '' ),
    'SwSTEP 2.0',
    'SolidWorks 2019',
    '' );
FILE_SCHEMA (( 'CONFIG_CONTROL_DESIGN' ));
ENDSEC;

DATA;
#1 = ORIENTED_EDGE ( 'NONE', *, *, #76, .F. ) ;
#2 = EDGE_LOOP ( 'NONE', ( #73 ) ) ;
#3 = DIRECTION ( 'NONE',  ( 4.275831445896959482E-31, 1.000000000000000000, 1.224646799147353207E-16 ) ) ;
#4 = DIRECTION ( 'NONE',  ( -3.491481338843133355E-15, 1.224646799147353207E-16, -1.000000000000000000 ) ) ;
#5 = VERTEX_POINT ( 'NONE', #22 ) ;
#6 = MECHANICAL_CONTEXT ( 'NONE', #136, 'mechanical' ) ;
#7 = DATE_AND_TIME ( #85, #38 ) ;
#8 = DIRECTION ( 'NONE',  ( 0.0000000000000000000, 1.000000000000000000, 0.0000000000000000000 ) ) ;
#9 = ADVANCED_FACE ( 'NONE', ( #48 ), #31, .F. ) ;
#10 = AXIS2_PLACEMENT_3D ( 'NONE', #151, #165, #155 ) ;
#11 = DIRECTION ( 'NONE',  ( -3.491481338843133355E-15, 1.224646799147353207E-16, -1.000000000000000000 ) ) ;
#12 = CYLINDRICAL_SURFACE ( 'NONE', #74, 3.000000000000000000 ) ;
#13 = PRODUCT_DEFINITION_SHAPE ( 'NONE', 'NONE',  #142 ) ;
#14 = EDGE_LOOP ( 'NONE', ( #1 ) ) ;
#15 = CC_DESIGN_SECURITY_CLASSIFICATION ( #164, ( #47 ) ) ;
#16 = DIRECTION ( 'NONE',  ( 0.0000000000000000000, 1.000000000000000000, 0.0000000000000000000 ) ) ;
#17 = APPROVAL_DATE_TIME ( #187, #191 ) ;
#18 = CARTESIAN_POINT ( 'NONE',  ( 1.745740669421566173E-13, -6.123233995736764507E-15, 49.99999999999998579 ) ) ;
#19 = DATE_AND_TIME ( #56, #89 ) ;
#20 = AXIS2_PLACEMENT_3D ( 'NONE', #111, #59, #16 ) ;
#21 = CC_DESIGN_APPROVAL ( #46, ( #47 ) ) ;
#22 = CARTESIAN_POINT ( 'NONE',  ( 6.284666409917640040E-14, 2.999999999999997780, 18.00000000000000000 ) ) ;
#23 = UNCERTAINTY_MEASURE_WITH_UNIT (LENGTH_MEASURE( 1.000000000000000082E-05 ), #180, 'distance_accuracy_value', 'NONE');
#24 = DATE_AND_TIME ( #26, #35 ) ;
#25 = DIRECTION ( 'NONE',  ( 0.0000000000000000000, 0.0000000000000000000, 1.000000000000000000 ) ) ;
#26 = CALENDAR_DATE ( 2021, 12, 11 ) ;
#27 = APPROVAL_DATE_TIME ( #7, #46 ) ;
#28 = PERSON ( 'UNSPECIFIED', 'UNSPECIFIED', 'UNSPECIFIED', ('UNSPECIFIED'), ('UNSPECIFIED'), ('UNSPECIFIED') ) ;
#29 = CLOSED_SHELL ( 'NONE', ( #9, #106, #90, #137 ) ) ;
#30 = AXIS2_PLACEMENT_3D ( 'NONE', #58, #174, #127 ) ;
#31 = PLANE ( 'NONE',  #140 ) ;
#32 = DIRECTION ( 'NONE',  ( -3.491481338843133355E-15, 1.224646799147353207E-16, -1.000000000000000000 ) ) ;
#33 = ORIENTED_EDGE ( 'NONE', *, *, #167, .T. ) ;
#34 = ORIENTED_EDGE ( 'NONE', *, *, #98, .T. ) ;
#35 = LOCAL_TIME ( 11, 8, 56.00000000000000000, #101 ) ;
#36 = VERTEX_POINT ( 'NONE', #64 ) ;
#37 = DESIGN_CONTEXT ( 'detailed design', #143, 'design' ) ;
#38 = LOCAL_TIME ( 11, 8, 56.00000000000000000, #189 ) ;
#39 = CARTESIAN_POINT ( 'NONE',  ( 1.728283262727351074E-13, 2.999999999999988898, 49.50000000000000000 ) ) ;
#40 = PERSON_AND_ORGANIZATION ( #28, #145 ) ;
#41 = COORDINATED_UNIVERSAL_TIME_OFFSET ( 1, 0, .AHEAD. ) ;
#42 = VERTEX_POINT ( 'NONE', #79 ) ;
#43 = SECURITY_CLASSIFICATION_LEVEL ( 'unclassified' ) ;
#44 = CC_DESIGN_DATE_AND_TIME_ASSIGNMENT ( #19, #103, ( #142 ) ) ;
#45 = CARTESIAN_POINT ( 'NONE',  ( 1.745740669421566173E-13, -6.123233995736764507E-15, 49.99999999999998579 ) ) ;
#46 = APPROVAL ( #153, 'UNSPECIFIED' ) ;
#47 = PRODUCT_DEFINITION_FORMATION_WITH_SPECIFIED_SOURCE ( 'ANY', '', #203, .NOT_KNOWN. ) ;
#48 = FACE_OUTER_BOUND ( 'NONE', #133, .T. ) ;
#49 = CARTESIAN_POINT ( 'NONE',  ( -1.282749433769087757E-30, 4.499279347985572824E-32, -3.673940397442059868E-16 ) ) ;
#50 = AXIS2_PLACEMENT_3D ( 'NONE', #152, #4, #194 ) ;
#51 = DIRECTION ( 'NONE',  ( -3.491481338843133355E-15, 1.224646799147353207E-16, -1.000000000000000000 ) ) ;
#52 = CARTESIAN_POINT ( 'NONE',  ( 6.284666409917640040E-14, 2.249639673992783127E-32, 18.00000000000000000 ) ) ;
#53 = PERSON_AND_ORGANIZATION ( #28, #145 ) ;
#54 = PERSON_AND_ORGANIZATION_ROLE ( 'design_owner' ) ;
#55 = DIRECTION ( 'NONE',  ( 1.000000000000000000, 0.0000000000000000000, 0.0000000000000000000 ) ) ;
#56 = CALENDAR_DATE ( 2021, 12, 11 ) ;
#57 = ORIENTED_EDGE ( 'NONE', *, *, #115, .T. ) ;
#58 = CARTESIAN_POINT ( 'NONE',  ( 1.728283262727351074E-13, -6.062001655779398511E-15, 49.50000000000000000 ) ) ;
#59 = DIRECTION ( 'NONE',  ( -3.491481338843133355E-15, 1.224646799147353207E-16, -1.000000000000000000 ) ) ;
#60 = CC_DESIGN_DATE_AND_TIME_ASSIGNMENT ( #197, #166, ( #164 ) ) ;
#61 = FACE_BOUND ( 'NONE', #159, .T. ) ;
#62 = PERSON_AND_ORGANIZATION_ROLE ( 'creator' ) ;
#63 = PERSON_AND_ORGANIZATION ( #28, #145 ) ;
#64 = CARTESIAN_POINT ( 'NONE',  ( 6.284666409917640040E-14, 2.999999999999997780, 18.00000000000000000 ) ) ;
#65 = PERSON_AND_ORGANIZATION ( #28, #145 ) ;
#66 = FACE_OUTER_BOUND ( 'NONE', #147, .T. ) ;
#67 = CIRCLE ( 'NONE', #68, 3.000000000000000000 ) ;
#68 = AXIS2_PLACEMENT_3D ( 'NONE', #49, #32, #3 ) ;
#69 = LOCAL_TIME ( 11, 8, 56.00000000000000000, #169 ) ;
#70 = CIRCLE ( 'NONE', #172, 2.500000000000001332 ) ;
#71 = MANIFOLD_SOLID_BREP ( 'Corps-Déplacer/Copier1[2]', #95 ) ;
#72 = EDGE_LOOP ( 'NONE', ( #192 ) ) ;
#73 = ORIENTED_EDGE ( 'NONE', *, *, #115, .F. ) ;
#74 = AXIS2_PLACEMENT_3D ( 'NONE', #144, #131, #150 ) ;
#75 = DIRECTION ( 'NONE',  ( 0.0000000000000000000, 1.000000000000000000, 0.0000000000000000000 ) ) ;
#76 = EDGE_CURVE ( 'NONE', #42, #42, #67, .T. ) ;
#77 = FACE_OUTER_BOUND ( 'NONE', #178, .T. ) ;
#78 = CONICAL_SURFACE ( 'NONE', #200, 2.500000000000001332, 0.7853981633974552734 ) ;
#79 = CARTESIAN_POINT ( 'NONE',  ( 0.0000000000000000000, 3.000000000000000000, 0.0000000000000000000 ) ) ;
#80 = APPROVAL_PERSON_ORGANIZATION ( #53, #46, #170 ) ;
#81 = FACE_OUTER_BOUND ( 'NONE', #93, .T. ) ;
#82 = PERSON_AND_ORGANIZATION_ROLE ( 'classification_officer' ) ;
#83 = FACE_OUTER_BOUND ( 'NONE', #97, .T. ) ;
#84 = APPLICATION_PROTOCOL_DEFINITION ( 'international standard', 'config_control_design', 1994, #143 ) ;
#85 = CALENDAR_DATE ( 2021, 12, 11 ) ;
#86 = PERSON_AND_ORGANIZATION ( #28, #145 ) ;
#87 = PRODUCT_RELATED_PRODUCT_CATEGORY ( 'detail', '', ( #203 ) ) ;
#88 = APPROVAL_PERSON_ORGANIZATION ( #63, #191, #118 ) ;
#89 = LOCAL_TIME ( 11, 8, 56.00000000000000000, #125 ) ;
#90 = ADVANCED_FACE ( 'NONE', ( #108, #61 ), #78, .T. ) ;
#91 = CC_DESIGN_APPROVAL ( #191, ( #142 ) ) ;
#92 = FACE_OUTER_BOUND ( 'NONE', #72, .T. ) ;
#93 = EDGE_LOOP ( 'NONE', ( #94 ) ) ;
#94 = ORIENTED_EDGE ( 'NONE', *, *, #167, .F. ) ;
#95 = CLOSED_SHELL ( 'NONE', ( #134, #123, #202 ) ) ;
#96 = CARTESIAN_POINT ( 'NONE',  ( 6.284666409917640040E-14, 2.249639673992783127E-32, 18.00000000000000000 ) ) ;
#97 = EDGE_LOOP ( 'NONE', ( #113 ) ) ;
#98 = EDGE_CURVE ( 'NONE', #5, #5, #109, .T. ) ;
#99 = VERTEX_POINT ( 'NONE', #120 ) ;
#100 = CC_DESIGN_APPROVAL ( #112, ( #164 ) ) ;
#101 = COORDINATED_UNIVERSAL_TIME_OFFSET ( 1, 0, .AHEAD. ) ;
#102 = CALENDAR_DATE ( 2021, 12, 11 ) ;
#103 = DATE_TIME_ROLE ( 'creation_date' ) ;
#104 = CC_DESIGN_PERSON_AND_ORGANIZATION_ASSIGNMENT ( #195, #119, ( #47 ) ) ;
#105 = SHAPE_DEFINITION_REPRESENTATION ( #13, #181 ) ;
#106 = ADVANCED_FACE ( 'NONE', ( #77, #92 ), #146, .T. ) ;
#107 = APPROVAL_PERSON_ORGANIZATION ( #40, #112, #184 ) ;
#108 = FACE_OUTER_BOUND ( 'NONE', #2, .T. ) ;
#109 = CIRCLE ( 'NONE', #20, 3.000000000000000000 ) ;
#110 = AXIS2_PLACEMENT_3D ( 'NONE', #148, #11, #132 ) ;
#111 = CARTESIAN_POINT ( 'NONE',  ( 6.284666409917640040E-14, -2.204364238465235428E-15, 18.00000000000000000 ) ) ;
#112 = APPROVAL ( #186, 'UNSPECIFIED' ) ;
#113 = ORIENTED_EDGE ( 'NONE', *, *, #76, .T. ) ;
#114 = DIRECTION ( 'NONE',  ( -4.275831445896958607E-31, -1.000000000000000000, -1.224646799147353207E-16 ) ) ;
#115 = EDGE_CURVE ( 'NONE', #179, #179, #158, .T. ) ;
#116 = PLANE ( 'NONE',  #50 ) ;
#117 = CALENDAR_DATE ( 2021, 12, 11 ) ;
#118 = APPROVAL_ROLE ( '' ) ;
#119 = PERSON_AND_ORGANIZATION_ROLE ( 'design_supplier' ) ;
#120 = CARTESIAN_POINT ( 'NONE',  ( 1.745740669421566173E-13, 2.499999999999995115, 49.99999999999998579 ) ) ;
#121 = APPROVAL_STATUS ( 'not_yet_approved' ) ;
#122 = PERSON_AND_ORGANIZATION ( #28, #145 ) ;
#123 = ADVANCED_FACE ( 'NONE', ( #176, #160 ), #12, .T. ) ;
#124 = PLANE ( 'NONE',  #201 ) ;
#125 = COORDINATED_UNIVERSAL_TIME_OFFSET ( 1, 0, .AHEAD. ) ;
#126 = CC_DESIGN_PERSON_AND_ORGANIZATION_ASSIGNMENT ( #86, #156, ( #142 ) ) ;
#127 = DIRECTION ( 'NONE',  ( 0.0000000000000000000, 1.000000000000000000, 0.0000000000000000000 ) ) ;
#128 = ORIENTED_EDGE ( 'NONE', *, *, #171, .F. ) ;
#129 = CIRCLE ( 'NONE', #141, 3.000000000000000000 ) ;
#130 = CC_DESIGN_PERSON_AND_ORGANIZATION_ASSIGNMENT ( #185, #54, ( #203 ) ) ;
#131 = DIRECTION ( 'NONE',  ( -3.491481338843133355E-15, 1.224646799147353207E-16, -1.000000000000000000 ) ) ;
#132 = DIRECTION ( 'NONE',  ( 4.275831445896958607E-31, 1.000000000000000000, 1.224646799147353207E-16 ) ) ;
#133 = EDGE_LOOP ( 'NONE', ( #34 ) ) ;
#134 = ADVANCED_FACE ( 'NONE', ( #83 ), #135, .T. ) ;
#135 = PLANE ( 'NONE',  #10 ) ;
#136 = APPLICATION_CONTEXT ( 'configuration controlled 3d designs of mechanical parts and assemblies' ) ;
#137 = ADVANCED_FACE ( 'NONE', ( #81 ), #116, .F. ) ;
#138 = DIRECTION ( 'NONE',  ( 3.491481338843133355E-15, -1.224646799147353207E-16, 1.000000000000000000 ) ) ;
#139 = APPROVAL_DATE_TIME ( #24, #112 ) ;
#140 = AXIS2_PLACEMENT_3D ( 'NONE', #96, #161, #114 ) ;
#141 = AXIS2_PLACEMENT_3D ( 'NONE', #188, #51, #183 ) ;
#142 = PRODUCT_DEFINITION ( 'UNKNOWN', '', #47, #37 ) ;
#143 = APPLICATION_CONTEXT ( 'configuration controlled 3d designs of mechanical parts and assemblies' ) ;
#144 = CARTESIAN_POINT ( 'NONE',  ( 0.0000000000000000000, 0.0000000000000000000, 0.0000000000000000000 ) ) ;
#145 = ORGANIZATION ( 'UNSPECIFIED', 'UNSPECIFIED', '' ) ;
#146 = CYLINDRICAL_SURFACE ( 'NONE', #110, 2.999999999999997335 ) ;
#147 = EDGE_LOOP ( 'NONE', ( #128 ) ) ;
#148 = CARTESIAN_POINT ( 'NONE',  ( 0.0000000000000000000, 0.0000000000000000000, 0.0000000000000000000 ) ) ;
#149 = MANIFOLD_SOLID_BREP ( 'Corps-Déplacer/Copier1[1]', #29 ) ;
#150 = DIRECTION ( 'NONE',  ( 4.275831445896959482E-31, 1.000000000000000000, 1.224646799147353207E-16 ) ) ;
#151 = CARTESIAN_POINT ( 'NONE',  ( -6.413747168845438786E-31, 2.249639673992786412E-32, -1.836970198721029934E-16 ) ) ;
#152 = CARTESIAN_POINT ( 'NONE',  ( 1.745740669421566425E-13, 8.685164181875800873E-31, 49.99999999999999289 ) ) ;
#153 = APPROVAL_STATUS ( 'not_yet_approved' ) ;
#154 =( GEOMETRIC_REPRESENTATION_CONTEXT ( 3 ) GLOBAL_UNCERTAINTY_ASSIGNED_CONTEXT ( ( #23 ) ) GLOBAL_UNIT_ASSIGNED_CONTEXT ( ( #180, #157, #168 ) ) REPRESENTATION_CONTEXT ( 'NONE', 'WORKASPACE' ) );
#155 = DIRECTION ( 'NONE',  ( 4.275831445896958607E-31, 1.000000000000000000, 1.224646799147353207E-16 ) ) ;
#156 = PERSON_AND_ORGANIZATION_ROLE ( 'creator' ) ;
#157 =( NAMED_UNIT ( * ) PLANE_ANGLE_UNIT ( ) SI_UNIT ( $, .RADIAN. ) );
#158 = CIRCLE ( 'NONE', #30, 2.999999999999994671 ) ;
#159 = EDGE_LOOP ( 'NONE', ( #33 ) ) ;
#160 = FACE_OUTER_BOUND ( 'NONE', #14, .T. ) ;
#161 = DIRECTION ( 'NONE',  ( 3.491481338843133355E-15, -1.224646799147353207E-16, 1.000000000000000000 ) ) ;
#162 = CC_DESIGN_PERSON_AND_ORGANIZATION_ASSIGNMENT ( #122, #62, ( #47 ) ) ;
#163 = APPLICATION_PROTOCOL_DEFINITION ( 'international standard', 'config_control_design', 1994, #136 ) ;
#164 = SECURITY_CLASSIFICATION ( '', '', #43 ) ;
#165 = DIRECTION ( 'NONE',  ( -3.491481338843133355E-15, 1.224646799147353207E-16, -1.000000000000000000 ) ) ;
#166 = DATE_TIME_ROLE ( 'classification_date' ) ;
#167 = EDGE_CURVE ( 'NONE', #99, #99, #70, .T. ) ;
#168 =( NAMED_UNIT ( * ) SI_UNIT ( $, .STERADIAN. ) SOLID_ANGLE_UNIT ( ) );
#169 = COORDINATED_UNIVERSAL_TIME_OFFSET ( 1, 0, .AHEAD. ) ;
#170 = APPROVAL_ROLE ( '' ) ;
#171 = EDGE_CURVE ( 'NONE', #36, #36, #129, .T. ) ;
#172 = AXIS2_PLACEMENT_3D ( 'NONE', #18, #198, #8 ) ;
#173 = DIRECTION ( 'NONE',  ( -4.275831445896958607E-31, -1.000000000000000000, -1.224646799147353207E-16 ) ) ;
#174 = DIRECTION ( 'NONE',  ( -3.491481338843133355E-15, 1.224646799147353207E-16, -1.000000000000000000 ) ) ;
#175 = LOCAL_TIME ( 11, 8, 56.00000000000000000, #41 ) ;
#176 = FACE_OUTER_BOUND ( 'NONE', #177, .T. ) ;
#177 = EDGE_LOOP ( 'NONE', ( #190 ) ) ;
#178 = EDGE_LOOP ( 'NONE', ( #57 ) ) ;
#179 = VERTEX_POINT ( 'NONE', #39 ) ;
#180 =( LENGTH_UNIT ( ) NAMED_UNIT ( * ) SI_UNIT ( .MILLI., .METRE. ) );
#181 = ADVANCED_BREP_SHAPE_REPRESENTATION ( '34627', ( #149, #71, #182 ), #154 ) ;
#182 = AXIS2_PLACEMENT_3D ( 'NONE', #196, #25, #55 ) ;
#183 = DIRECTION ( 'NONE',  ( 0.0000000000000000000, 1.000000000000000000, 0.0000000000000000000 ) ) ;
#184 = APPROVAL_ROLE ( '' ) ;
#185 = PERSON_AND_ORGANIZATION ( #28, #145 ) ;
#186 = APPROVAL_STATUS ( 'not_yet_approved' ) ;
#187 = DATE_AND_TIME ( #102, #175 ) ;
#188 = CARTESIAN_POINT ( 'NONE',  ( 6.284666409917640040E-14, -2.204364238465235428E-15, 18.00000000000000000 ) ) ;
#189 = COORDINATED_UNIVERSAL_TIME_OFFSET ( 1, 0, .AHEAD. ) ;
#190 = ORIENTED_EDGE ( 'NONE', *, *, #171, .T. ) ;
#191 = APPROVAL ( #121, 'UNSPECIFIED' ) ;
#192 = ORIENTED_EDGE ( 'NONE', *, *, #98, .F. ) ;
#193 = DIRECTION ( 'NONE',  ( -3.491481338843133355E-15, 1.224646799147353207E-16, -1.000000000000000000 ) ) ;
#194 = DIRECTION ( 'NONE',  ( 4.275831445896958607E-31, 1.000000000000000000, 1.224646799147353207E-16 ) ) ;
#195 = PERSON_AND_ORGANIZATION ( #28, #145 ) ;
#196 = CARTESIAN_POINT ( 'NONE',  ( 0.0000000000000000000, 0.0000000000000000000, 0.0000000000000000000 ) ) ;
#197 = DATE_AND_TIME ( #117, #69 ) ;
#198 = DIRECTION ( 'NONE',  ( -3.491481338843133355E-15, 1.224646799147353207E-16, -1.000000000000000000 ) ) ;
#199 = CC_DESIGN_PERSON_AND_ORGANIZATION_ASSIGNMENT ( #65, #82, ( #164 ) ) ;
#200 = AXIS2_PLACEMENT_3D ( 'NONE', #45, #193, #75 ) ;
#201 = AXIS2_PLACEMENT_3D ( 'NONE', #52, #138, #173 ) ;
#202 = ADVANCED_FACE ( 'NONE', ( #66 ), #124, .T. ) ;
#203 = PRODUCT ( '34627', '34627', '', ( #6 ) ) ;
ENDSEC;
END-ISO-10303-21;
