ISO-10303-21;
HEADER;
FILE_DESCRIPTION (( 'STEP AP203' ),
    '1' );
FILE_NAME ('34626.step',
    '2021-11-12T10:08:56',
    ( '' ),
    ( '' ),
    'SwSTEP 2.0',
    'SolidWorks 2019',
    '' );
FILE_SCHEMA (( 'CONFIG_CONTROL_DESIGN' ));
ENDSEC;

DATA;
#1 = DIRECTION ( 'NONE',  ( -4.275831445896958607E-31, -1.000000000000000000, -1.224646799147353207E-16 ) ) ;
#2 = PLANE ( 'NONE',  #69 ) ;
#3 = CC_DESIGN_SECURITY_CLASSIFICATION ( #50, ( #8 ) ) ;
#4 = FACE_OUTER_BOUND ( 'NONE', #130, .T. ) ;
#5 = APPROVAL ( #6, 'UNSPECIFIED' ) ;
#6 = APPROVAL_STATUS ( 'not_yet_approved' ) ;
#7 = CIRCLE ( 'NONE', #169, 2.499999999999999556 ) ;
#8 = PRODUCT_DEFINITION_FORMATION_WITH_SPECIFIED_SOURCE ( 'ANY', '', #94, .NOT_KNOWN. ) ;
#9 = AXIS2_PLACEMENT_3D ( 'NONE', #53, #163, #29 ) ;
#10 = APPROVAL_STATUS ( 'not_yet_approved' ) ;
#11 = EDGE_LOOP ( 'NONE', ( #15 ) ) ;
#12 = ORIENTED_EDGE ( 'NONE', *, *, #65, .T. ) ;
#13 = CALENDAR_DATE ( 2021, 12, 11 ) ;
#14 = CC_DESIGN_DATE_AND_TIME_ASSIGNMENT ( #134, #151, ( #50 ) ) ;
#15 = ORIENTED_EDGE ( 'NONE', *, *, #65, .F. ) ;
#16 = PERSON_AND_ORGANIZATION_ROLE ( 'classification_officer' ) ;
#17 = PERSON_AND_ORGANIZATION ( #105, #77 ) ;
#18 = AXIS2_PLACEMENT_3D ( 'NONE', #173, #36, #122 ) ;
#19 = FACE_OUTER_BOUND ( 'NONE', #185, .T. ) ;
#20 = AXIS2_PLACEMENT_3D ( 'NONE', #111, #78, #152 ) ;
#21 = CARTESIAN_POINT ( 'NONE',  ( 1.745740669421566678E-13, -6.123233995736766085E-15, 50.00000000000000000 ) ) ;
#22 = DIRECTION ( 'NONE',  ( -3.491481338843133355E-15, 1.224646799147353207E-16, -1.000000000000000000 ) ) ;
#23 = ADVANCED_FACE ( 'NONE', ( #119 ), #103, .F. ) ;
#24 = CARTESIAN_POINT ( 'NONE',  ( 5.237222008264700033E-14, -1.836970198721029589E-15, 15.00000000000000000 ) ) ;
#25 = CARTESIAN_POINT ( 'NONE',  ( 1.745740669421566678E-13, -6.123233995736766085E-15, 50.00000000000000000 ) ) ;
#26 = PERSON_AND_ORGANIZATION ( #105, #77 ) ;
#27 = PERSON_AND_ORGANIZATION ( #105, #77 ) ;
#28 = EDGE_CURVE ( 'NONE', #133, #133, #168, .T. ) ;
#29 = DIRECTION ( 'NONE',  ( 4.275831445896958607E-31, 1.000000000000000000, 1.224646799147353207E-16 ) ) ;
#30 = ORIENTED_EDGE ( 'NONE', *, *, #186, .F. ) ;
#31 = ADVANCED_FACE ( 'NONE', ( #110, #82 ), #143, .T. ) ;
#32 = APPROVAL_DATE_TIME ( #101, #5 ) ;
#33 = EDGE_LOOP ( 'NONE', ( #181 ) ) ;
#34 = CC_DESIGN_PERSON_AND_ORGANIZATION_ASSIGNMENT ( #179, #46, ( #8 ) ) ;
#35 = EDGE_LOOP ( 'NONE', ( #12 ) ) ;
#36 = DIRECTION ( 'NONE',  ( -3.491481338843133355E-15, 1.224646799147353207E-16, -1.000000000000000000 ) ) ;
#37 = DIRECTION ( 'NONE',  ( 3.491481338843133355E-15, -1.224646799147353207E-16, 1.000000000000000000 ) ) ;
#38 = DIRECTION ( 'NONE',  ( -3.491481338843133355E-15, 1.224646799147353207E-16, -1.000000000000000000 ) ) ;
#39 = CC_DESIGN_PERSON_AND_ORGANIZATION_ASSIGNMENT ( #26, #197, ( #112 ) ) ;
#40 = DATE_TIME_ROLE ( 'creation_date' ) ;
#41 =( LENGTH_UNIT ( ) NAMED_UNIT ( * ) SI_UNIT ( .MILLI., .METRE. ) );
#42 = LOCAL_TIME ( 11, 8, 56.00000000000000000, #116 ) ;
#43 = PERSON_AND_ORGANIZATION ( #105, #77 ) ;
#44 = DIRECTION ( 'NONE',  ( 1.000000000000000000, 0.0000000000000000000, 0.0000000000000000000 ) ) ;
#45 = ORIENTED_EDGE ( 'NONE', *, *, #186, .T. ) ;
#46 = PERSON_AND_ORGANIZATION_ROLE ( 'design_supplier' ) ;
#47 = AXIS2_PLACEMENT_3D ( 'NONE', #190, #61, #89 ) ;
#48 = DIRECTION ( 'NONE',  ( 4.275831445896958607E-31, 1.000000000000000000, 1.224646799147353207E-16 ) ) ;
#49 = DIRECTION ( 'NONE',  ( 3.491481338843133355E-15, -1.224646799147353207E-16, 1.000000000000000000 ) ) ;
#50 = SECURITY_CLASSIFICATION ( '', '', #73 ) ;
#51 = ADVANCED_FACE ( 'NONE', ( #157 ), #195, .T. ) ;
#52 = CALENDAR_DATE ( 2021, 12, 11 ) ;
#53 = CARTESIAN_POINT ( 'NONE',  ( -1.068957861474239564E-30, 3.749399456654644020E-32, -3.061616997868383141E-16 ) ) ;
#54 = APPLICATION_PROTOCOL_DEFINITION ( 'international standard', 'config_control_design', 1994, #139 ) ;
#55 = APPLICATION_CONTEXT ( 'configuration controlled 3d designs of mechanical parts and assemblies' ) ;
#56 = CARTESIAN_POINT ( 'NONE',  ( 0.0000000000000000000, 0.0000000000000000000, 0.0000000000000000000 ) ) ;
#57 = ORIENTED_EDGE ( 'NONE', *, *, #28, .T. ) ;
#58 = LOCAL_TIME ( 11, 8, 56.00000000000000000, #149 ) ;
#59 = FACE_OUTER_BOUND ( 'NONE', #200, .T. ) ;
#60 = CARTESIAN_POINT ( 'NONE',  ( -5.344789307371197820E-31, 1.874699728327322010E-32, -1.530808498934191571E-16 ) ) ;
#61 = DIRECTION ( 'NONE',  ( -3.491481338843133355E-15, 1.224646799147353207E-16, -1.000000000000000000 ) ) ;
#62 = FACE_BOUND ( 'NONE', #35, .T. ) ;
#63 = CC_DESIGN_PERSON_AND_ORGANIZATION_ASSIGNMENT ( #43, #115, ( #8 ) ) ;
#64 = PRODUCT_DEFINITION_SHAPE ( 'NONE', 'NONE',  #112 ) ;
#65 = EDGE_CURVE ( 'NONE', #126, #126, #203, .T. ) ;
#66 = PRODUCT_RELATED_PRODUCT_CATEGORY ( 'detail', '', ( #94 ) ) ;
#67 = PERSON_AND_ORGANIZATION_ROLE ( 'design_owner' ) ;
#68 = APPROVAL_ROLE ( '' ) ;
#69 = AXIS2_PLACEMENT_3D ( 'NONE', #153, #123, #194 ) ;
#70 = AXIS2_PLACEMENT_3D ( 'NONE', #60, #174, #48 ) ;
#71 = APPROVAL_DATE_TIME ( #198, #92 ) ;
#72 = ADVANCED_FACE ( 'NONE', ( #156, #62 ), #113, .T. ) ;
#73 = SECURITY_CLASSIFICATION_LEVEL ( 'unclassified' ) ;
#74 = EDGE_LOOP ( 'NONE', ( #148 ) ) ;
#75 = CC_DESIGN_APPROVAL ( #92, ( #8 ) ) ;
#76 = APPROVAL_ROLE ( '' ) ;
#77 = ORGANIZATION ( 'UNSPECIFIED', 'UNSPECIFIED', '' ) ;
#78 = DIRECTION ( 'NONE',  ( -3.491481338843133355E-15, 1.224646799147353207E-16, -1.000000000000000000 ) ) ;
#79 = DIRECTION ( 'NONE',  ( 0.0000000000000000000, 1.000000000000000000, 0.0000000000000000000 ) ) ;
#80 = AXIS2_PLACEMENT_3D ( 'NONE', #93, #114, #124 ) ;
#81 = AXIS2_PLACEMENT_3D ( 'NONE', #155, #37, #125 ) ;
#82 = FACE_OUTER_BOUND ( 'NONE', #33, .T. ) ;
#83 = CARTESIAN_POINT ( 'NONE',  ( 1.745740669421566678E-13, 1.999999999999991340, 50.00000000000000000 ) ) ;
#84 = CARTESIAN_POINT ( 'NONE',  ( 1.728283262727351074E-13, 2.499999999999995115, 49.50000000000000000 ) ) ;
#85 = EDGE_LOOP ( 'NONE', ( #45 ) ) ;
#86 = AXIS2_PLACEMENT_3D ( 'NONE', #21, #38, #191 ) ;
#87 = MANIFOLD_SOLID_BREP ( 'Corps-Déplacer/Copier1[2]', #141 ) ;
#88 = FACE_OUTER_BOUND ( 'NONE', #11, .T. ) ;
#89 = DIRECTION ( 'NONE',  ( 0.0000000000000000000, 1.000000000000000000, 0.0000000000000000000 ) ) ;
#90 = MANIFOLD_SOLID_BREP ( 'Corps-Déplacer/Copier1[1]', #131 ) ;
#91 = LOCAL_TIME ( 11, 8, 56.00000000000000000, #109 ) ;
#92 = APPROVAL ( #10, 'UNSPECIFIED' ) ;
#93 = CARTESIAN_POINT ( 'NONE',  ( 0.0000000000000000000, 0.0000000000000000000, 0.0000000000000000000 ) ) ;
#94 = PRODUCT ( '34626', '34626', '', ( #164 ) ) ;
#95 = EDGE_CURVE ( 'NONE', #159, #159, #192, .T. ) ;
#96 = AXIS2_PLACEMENT_3D ( 'NONE', #25, #138, #177 ) ;
#97 = CARTESIAN_POINT ( 'NONE',  ( 0.0000000000000000000, 2.500000000000000000, 0.0000000000000000000 ) ) ;
#98 = APPLICATION_PROTOCOL_DEFINITION ( 'international standard', 'config_control_design', 1994, #55 ) ;
#99 = APPROVAL_PERSON_ORGANIZATION ( #121, #104, #76 ) ;
#100 = CC_DESIGN_PERSON_AND_ORGANIZATION_ASSIGNMENT ( #128, #67, ( #94 ) ) ;
#101 = DATE_AND_TIME ( #180, #42 ) ;
#102 =( NAMED_UNIT ( * ) PLANE_ANGLE_UNIT ( ) SI_UNIT ( $, .RADIAN. ) );
#103 = PLANE ( 'NONE',  #136 ) ;
#104 = APPROVAL ( #106, 'UNSPECIFIED' ) ;
#105 = PERSON ( 'UNSPECIFIED', 'UNSPECIFIED', 'UNSPECIFIED', ('UNSPECIFIED'), ('UNSPECIFIED'), ('UNSPECIFIED') ) ;
#106 = APPROVAL_STATUS ( 'not_yet_approved' ) ;
#107 = CIRCLE ( 'NONE', #9, 2.500000000000000000 ) ;
#108 = CC_DESIGN_APPROVAL ( #5, ( #112 ) ) ;
#109 = COORDINATED_UNIVERSAL_TIME_OFFSET ( 1, 0, .AHEAD. ) ;
#110 = FACE_OUTER_BOUND ( 'NONE', #188, .T. ) ;
#111 = CARTESIAN_POINT ( 'NONE',  ( 1.728283262727351074E-13, -6.062001655779398511E-15, 49.50000000000000000 ) ) ;
#112 = PRODUCT_DEFINITION ( 'UNKNOWN', '', #8, #183 ) ;
#113 = CONICAL_SURFACE ( 'NONE', #86, 1.999999999999997335, 0.7853981633974518317 ) ;
#114 = DIRECTION ( 'NONE',  ( -3.491481338843133355E-15, 1.224646799147353207E-16, -1.000000000000000000 ) ) ;
#115 = PERSON_AND_ORGANIZATION_ROLE ( 'creator' ) ;
#116 = COORDINATED_UNIVERSAL_TIME_OFFSET ( 1, 0, .AHEAD. ) ;
#117 = VERTEX_POINT ( 'NONE', #147 ) ;
#118 = CARTESIAN_POINT ( 'NONE',  ( 5.237222008264700033E-14, 2.499999999999997780, 15.00000000000000000 ) ) ;
#119 = FACE_OUTER_BOUND ( 'NONE', #172, .T. ) ;
#120 =( GEOMETRIC_REPRESENTATION_CONTEXT ( 3 ) GLOBAL_UNCERTAINTY_ASSIGNED_CONTEXT ( ( #132 ) ) GLOBAL_UNIT_ASSIGNED_CONTEXT ( ( #41, #102, #129 ) ) REPRESENTATION_CONTEXT ( 'NONE', 'WORKASPACE' ) );
#121 = PERSON_AND_ORGANIZATION ( #105, #77 ) ;
#122 = DIRECTION ( 'NONE',  ( 4.275831445896958607E-31, 1.000000000000000000, 1.224646799147353207E-16 ) ) ;
#123 = DIRECTION ( 'NONE',  ( -3.491481338843133355E-15, 1.224646799147353207E-16, -1.000000000000000000 ) ) ;
#124 = DIRECTION ( 'NONE',  ( 4.275831445896958607E-31, 1.000000000000000000, 1.224646799147353207E-16 ) ) ;
#125 = DIRECTION ( 'NONE',  ( -4.275831445896958607E-31, -1.000000000000000000, -1.224646799147353207E-16 ) ) ;
#126 = VERTEX_POINT ( 'NONE', #83 ) ;
#127 = EDGE_CURVE ( 'NONE', #117, #117, #7, .T. ) ;
#128 = PERSON_AND_ORGANIZATION ( #105, #77 ) ;
#129 =( NAMED_UNIT ( * ) SI_UNIT ( $, .STERADIAN. ) SOLID_ANGLE_UNIT ( ) );
#130 = EDGE_LOOP ( 'NONE', ( #135 ) ) ;
#131 = CLOSED_SHELL ( 'NONE', ( #23, #31, #72, #176 ) ) ;
#132 = UNCERTAINTY_MEASURE_WITH_UNIT (LENGTH_MEASURE( 1.000000000000000082E-05 ), #41, 'distance_accuracy_value', 'NONE');
#133 = VERTEX_POINT ( 'NONE', #118 ) ;
#134 = DATE_AND_TIME ( #171, #196 ) ;
#135 = ORIENTED_EDGE ( 'NONE', *, *, #127, .F. ) ;
#136 = AXIS2_PLACEMENT_3D ( 'NONE', #165, #49, #1 ) ;
#137 = ADVANCED_FACE ( 'NONE', ( #19, #59 ), #142, .T. ) ;
#138 = DIRECTION ( 'NONE',  ( -3.491481338843133355E-15, 1.224646799147353207E-16, -1.000000000000000000 ) ) ;
#139 = APPLICATION_CONTEXT ( 'configuration controlled 3d designs of mechanical parts and assemblies' ) ;
#140 = PLANE ( 'NONE',  #81 ) ;
#141 = CLOSED_SHELL ( 'NONE', ( #51, #137, #144 ) ) ;
#142 = CYLINDRICAL_SURFACE ( 'NONE', #18, 2.499999999999999556 ) ;
#143 = CYLINDRICAL_SURFACE ( 'NONE', #80, 2.500000000000000444 ) ;
#144 = ADVANCED_FACE ( 'NONE', ( #4 ), #140, .T. ) ;
#145 = APPROVAL_ROLE ( '' ) ;
#146 = PERSON_AND_ORGANIZATION ( #105, #77 ) ;
#147 = CARTESIAN_POINT ( 'NONE',  ( 5.237222008264700033E-14, 2.499999999999997780, 15.00000000000000000 ) ) ;
#148 = ORIENTED_EDGE ( 'NONE', *, *, #95, .F. ) ;
#149 = COORDINATED_UNIVERSAL_TIME_OFFSET ( 1, 0, .AHEAD. ) ;
#150 = SHAPE_DEFINITION_REPRESENTATION ( #64, #193 ) ;
#151 = DATE_TIME_ROLE ( 'classification_date' ) ;
#152 = DIRECTION ( 'NONE',  ( 0.0000000000000000000, 1.000000000000000000, 0.0000000000000000000 ) ) ;
#153 = CARTESIAN_POINT ( 'NONE',  ( 1.745740669421566678E-13, 1.499759782661846660E-32, 50.00000000000000000 ) ) ;
#154 = CC_DESIGN_PERSON_AND_ORGANIZATION_ASSIGNMENT ( #17, #16, ( #50 ) ) ;
#155 = CARTESIAN_POINT ( 'NONE',  ( 5.237222008264700033E-14, 1.874699728327318999E-32, 15.00000000000000000 ) ) ;
#156 = FACE_OUTER_BOUND ( 'NONE', #74, .T. ) ;
#157 = FACE_OUTER_BOUND ( 'NONE', #85, .T. ) ;
#158 = COORDINATED_UNIVERSAL_TIME_OFFSET ( 1, 0, .AHEAD. ) ;
#159 = VERTEX_POINT ( 'NONE', #84 ) ;
#160 = APPROVAL_PERSON_ORGANIZATION ( #146, #5, #145 ) ;
#161 = VERTEX_POINT ( 'NONE', #97 ) ;
#162 = AXIS2_PLACEMENT_3D ( 'NONE', #56, #184, #44 ) ;
#163 = DIRECTION ( 'NONE',  ( -3.491481338843133355E-15, 1.224646799147353207E-16, -1.000000000000000000 ) ) ;
#164 = MECHANICAL_CONTEXT ( 'NONE', #55, 'mechanical' ) ;
#165 = CARTESIAN_POINT ( 'NONE',  ( 5.237222008264700033E-14, 1.874699728327318999E-32, 15.00000000000000000 ) ) ;
#166 = COORDINATED_UNIVERSAL_TIME_OFFSET ( 1, 0, .AHEAD. ) ;
#167 = LOCAL_TIME ( 11, 8, 56.00000000000000000, #158 ) ;
#168 = CIRCLE ( 'NONE', #47, 2.499999999999999556 ) ;
#169 = AXIS2_PLACEMENT_3D ( 'NONE', #24, #22, #79 ) ;
#170 = CC_DESIGN_DATE_AND_TIME_ASSIGNMENT ( #178, #40, ( #112 ) ) ;
#171 = CALENDAR_DATE ( 2021, 12, 11 ) ;
#172 = EDGE_LOOP ( 'NONE', ( #57 ) ) ;
#173 = CARTESIAN_POINT ( 'NONE',  ( 0.0000000000000000000, 0.0000000000000000000, 0.0000000000000000000 ) ) ;
#174 = DIRECTION ( 'NONE',  ( -3.491481338843133355E-15, 1.224646799147353207E-16, -1.000000000000000000 ) ) ;
#175 = APPROVAL_PERSON_ORGANIZATION ( #27, #92, #68 ) ;
#176 = ADVANCED_FACE ( 'NONE', ( #88 ), #2, .F. ) ;
#177 = DIRECTION ( 'NONE',  ( 0.0000000000000000000, 1.000000000000000000, 0.0000000000000000000 ) ) ;
#178 = DATE_AND_TIME ( #52, #167 ) ;
#179 = PERSON_AND_ORGANIZATION ( #105, #77 ) ;
#180 = CALENDAR_DATE ( 2021, 12, 11 ) ;
#181 = ORIENTED_EDGE ( 'NONE', *, *, #28, .F. ) ;
#182 = ORIENTED_EDGE ( 'NONE', *, *, #127, .T. ) ;
#183 = DESIGN_CONTEXT ( 'detailed design', #139, 'design' ) ;
#184 = DIRECTION ( 'NONE',  ( 0.0000000000000000000, 0.0000000000000000000, 1.000000000000000000 ) ) ;
#185 = EDGE_LOOP ( 'NONE', ( #182 ) ) ;
#186 = EDGE_CURVE ( 'NONE', #161, #161, #107, .T. ) ;
#187 = CC_DESIGN_APPROVAL ( #104, ( #50 ) ) ;
#188 = EDGE_LOOP ( 'NONE', ( #199 ) ) ;
#189 = APPROVAL_DATE_TIME ( #202, #104 ) ;
#190 = CARTESIAN_POINT ( 'NONE',  ( 5.237222008264700033E-14, -1.836970198721029589E-15, 15.00000000000000000 ) ) ;
#191 = DIRECTION ( 'NONE',  ( 0.0000000000000000000, 1.000000000000000000, 0.0000000000000000000 ) ) ;
#192 = CIRCLE ( 'NONE', #20, 2.500000000000001332 ) ;
#193 = ADVANCED_BREP_SHAPE_REPRESENTATION ( '34626', ( #90, #87, #162 ), #120 ) ;
#194 = DIRECTION ( 'NONE',  ( 4.275831445896958607E-31, 1.000000000000000000, 1.224646799147353207E-16 ) ) ;
#195 = PLANE ( 'NONE',  #70 ) ;
#196 = LOCAL_TIME ( 11, 8, 56.00000000000000000, #166 ) ;
#197 = PERSON_AND_ORGANIZATION_ROLE ( 'creator' ) ;
#198 = DATE_AND_TIME ( #13, #58 ) ;
#199 = ORIENTED_EDGE ( 'NONE', *, *, #95, .T. ) ;
#200 = EDGE_LOOP ( 'NONE', ( #30 ) ) ;
#201 = CALENDAR_DATE ( 2021, 12, 11 ) ;
#202 = DATE_AND_TIME ( #201, #91 ) ;
#203 = CIRCLE ( 'NONE', #96, 1.999999999999997335 ) ;
ENDSEC;
END-ISO-10303-21;
