ISO-10303-21;
HEADER;
FILE_DESCRIPTION (( 'STEP AP203' ),
    '1' );
FILE_NAME ('34624.step',
    '2021-11-09T08:31:31',
    ( '' ),
    ( '' ),
    'SwSTEP 2.0',
    'SolidWorks 2019',
    '' );
FILE_SCHEMA (( 'CONFIG_CONTROL_DESIGN' ));
ENDSEC;

DATA;
#1 = VERTEX_POINT ( 'NONE', #61 ) ;
#2 = DESIGN_CONTEXT ( 'detailed design', #94, 'design' ) ;
#3 = ORGANIZATION ( 'UNSPECIFIED', 'UNSPECIFIED', '' ) ;
#4 = APPROVAL_DATE_TIME ( #6, #16 ) ;
#5 = CC_DESIGN_PERSON_AND_ORGANIZATION_ASSIGNMENT ( #98, #103, ( #115 ) ) ;
#6 = DATE_AND_TIME ( #86, #23 ) ;
#7 = PERSON_AND_ORGANIZATION ( #200, #3 ) ;
#8 = EDGE_CURVE ( 'NONE', #1, #1, #192, .T. ) ;
#9 = COORDINATED_UNIVERSAL_TIME_OFFSET ( 1, 0, .AHEAD. ) ;
#10 = PERSON_AND_ORGANIZATION_ROLE ( 'design_supplier' ) ;
#11 = DIRECTION ( 'NONE',  ( 0.0000000000000000000, 1.000000000000000000, 0.0000000000000000000 ) ) ;
#12 = MANIFOLD_SOLID_BREP ( 'Corps-Déplacer/Copier1[1]', #81 ) ;
#13 = CARTESIAN_POINT ( 'NONE',  ( 5.586370142149013368E-14, -1.959434878635765131E-15, 16.00000000000000000 ) ) ;
#14 = APPROVAL ( #173, 'UNSPECIFIED' ) ;
#15 = FACE_OUTER_BOUND ( 'NONE', #90, .T. ) ;
#16 = APPROVAL ( #19, 'UNSPECIFIED' ) ;
#17 = AXIS2_PLACEMENT_3D ( 'NONE', #125, #28, #177 ) ;
#18 = CARTESIAN_POINT ( 'NONE',  ( 5.586370142149013368E-14, 2.999999999999993783, 16.00000000000000000 ) ) ;
#19 = APPROVAL_STATUS ( 'not_yet_approved' ) ;
#20 = EDGE_LOOP ( 'NONE', ( #179 ) ) ;
#21 = APPROVAL_ROLE ( '' ) ;
#22 = PERSON_AND_ORGANIZATION ( #200, #3 ) ;
#23 = LOCAL_TIME ( 9, 31, 31.00000000000000000, #9 ) ;
#24 = DIRECTION ( 'NONE',  ( -4.275831445896958607E-31, -1.000000000000000000, -1.224646799147353207E-16 ) ) ;
#25 = APPROVAL_DATE_TIME ( #106, #14 ) ;
#26 = DIRECTION ( 'NONE',  ( -3.491481338843133355E-15, 1.224646799147353207E-16, -1.000000000000000000 ) ) ;
#27 = AXIS2_PLACEMENT_3D ( 'NONE', #197, #135, #85 ) ;
#28 = DIRECTION ( 'NONE',  ( -3.491481338843133355E-15, 1.224646799147353207E-16, -1.000000000000000000 ) ) ;
#29 = DIRECTION ( 'NONE',  ( -4.275831445896958607E-31, -1.000000000000000000, -1.224646799147353207E-16 ) ) ;
#30 = DATE_TIME_ROLE ( 'classification_date' ) ;
#31 = CARTESIAN_POINT ( 'NONE',  ( 5.586370142149013368E-14, -1.959434878635765131E-15, 16.00000000000000000 ) ) ;
#32 = AXIS2_PLACEMENT_3D ( 'NONE', #48, #127, #74 ) ;
#33 = CARTESIAN_POINT ( 'NONE',  ( 1.745740669421566678E-13, 1.874699728327312978E-32, 50.00000000000000000 ) ) ;
#34 = AXIS2_PLACEMENT_3D ( 'NONE', #77, #188, #56 ) ;
#35 = PRODUCT ( '34624', '34624', '', ( #118 ) ) ;
#36 = APPROVAL_DATE_TIME ( #171, #41 ) ;
#37 = CARTESIAN_POINT ( 'NONE',  ( 5.586370142149013368E-14, 2.999999999999993783, 16.00000000000000000 ) ) ;
#38 = SECURITY_CLASSIFICATION_LEVEL ( 'unclassified' ) ;
#39 = DATE_AND_TIME ( #162, #68 ) ;
#40 = CARTESIAN_POINT ( 'NONE',  ( 1.728283262727351074E-13, -6.062001655779398511E-15, 49.50000000000000000 ) ) ;
#41 = APPROVAL ( #54, 'UNSPECIFIED' ) ;
#42 = DIRECTION ( 'NONE',  ( 0.0000000000000000000, 1.000000000000000000, 0.0000000000000000000 ) ) ;
#43 = AXIS2_PLACEMENT_3D ( 'NONE', #40, #105, #202 ) ;
#44 = EDGE_CURVE ( 'NONE', #138, #138, #157, .T. ) ;
#45 = FACE_OUTER_BOUND ( 'NONE', #147, .T. ) ;
#46 = ADVANCED_FACE ( 'NONE', ( #58 ), #163, .F. ) ;
#47 = ORIENTED_EDGE ( 'NONE', *, *, #100, .T. ) ;
#48 = CARTESIAN_POINT ( 'NONE',  ( 0.0000000000000000000, 0.0000000000000000000, 0.0000000000000000000 ) ) ;
#49 = CC_DESIGN_DATE_AND_TIME_ASSIGNMENT ( #39, #30, ( #195 ) ) ;
#50 = ADVANCED_FACE ( 'NONE', ( #160, #141 ), #184, .T. ) ;
#51 = AXIS2_PLACEMENT_3D ( 'NONE', #126, #26, #42 ) ;
#52 = PERSON_AND_ORGANIZATION ( #200, #3 ) ;
#53 = EDGE_CURVE ( 'NONE', #67, #67, #62, .T. ) ;
#54 = APPROVAL_STATUS ( 'not_yet_approved' ) ;
#55 = DIRECTION ( 'NONE',  ( 4.275831445896958607E-31, 1.000000000000000000, 1.224646799147353454E-16 ) ) ;
#56 = DIRECTION ( 'NONE',  ( 4.275831445896959482E-31, 1.000000000000000000, 1.224646799147353207E-16 ) ) ;
#57 = CARTESIAN_POINT ( 'NONE',  ( -1.068961779941895236E-30, 3.749413200789027806E-32, -3.061628220805799266E-16 ) ) ;
#58 = FACE_OUTER_BOUND ( 'NONE', #174, .T. ) ;
#59 = CARTESIAN_POINT ( 'NONE',  ( -5.344808899709476178E-31, 1.874706600394513903E-32, -1.530814110402899633E-16 ) ) ;
#60 = APPROVAL_ROLE ( '' ) ;
#61 = CARTESIAN_POINT ( 'NONE',  ( 2.137876538271896752E-31, 2.999999999999993783, 6.123121766362532060E-17 ) ) ;
#62 = CIRCLE ( 'NONE', #43, 3.000000000000000000 ) ;
#63 = CC_DESIGN_APPROVAL ( #16, ( #167 ) ) ;
#64 = EDGE_CURVE ( 'NONE', #97, #97, #198, .T. ) ;
#65 = PRODUCT_RELATED_PRODUCT_CATEGORY ( 'detail', '', ( #35 ) ) ;
#66 = AXIS2_PLACEMENT_3D ( 'NONE', #33, #95, #148 ) ;
#67 = VERTEX_POINT ( 'NONE', #153 ) ;
#68 = LOCAL_TIME ( 9, 31, 31.00000000000000000, #92 ) ;
#69 = CALENDAR_DATE ( 2021, 9, 11 ) ;
#70 = PRODUCT_DEFINITION_SHAPE ( 'NONE', 'NONE',  #115 ) ;
#71 = EDGE_LOOP ( 'NONE', ( #120 ) ) ;
#72 = PERSON_AND_ORGANIZATION_ROLE ( 'creator' ) ;
#73 = ADVANCED_FACE ( 'NONE', ( #15, #78 ), #142, .T. ) ;
#74 = DIRECTION ( 'NONE',  ( 4.275831445896958607E-31, 1.000000000000000000, 1.224646799147353454E-16 ) ) ;
#75 = CYLINDRICAL_SURFACE ( 'NONE', #34, 2.999999999999994671 ) ;
#76 = ADVANCED_FACE ( 'NONE', ( #145, #158 ), #75, .T. ) ;
#77 = CARTESIAN_POINT ( 'NONE',  ( 0.0000000000000000000, 0.0000000000000000000, 0.0000000000000000000 ) ) ;
#78 = FACE_BOUND ( 'NONE', #117, .T. ) ;
#79 = CLOSED_SHELL ( 'NONE', ( #119, #76, #113 ) ) ;
#80 = FACE_OUTER_BOUND ( 'NONE', #71, .T. ) ;
#81 = CLOSED_SHELL ( 'NONE', ( #46, #50, #73, #152 ) ) ;
#82 =( GEOMETRIC_REPRESENTATION_CONTEXT ( 3 ) GLOBAL_UNCERTAINTY_ASSIGNED_CONTEXT ( ( #83 ) ) GLOBAL_UNIT_ASSIGNED_CONTEXT ( ( #193, #181, #139 ) ) REPRESENTATION_CONTEXT ( 'NONE', 'WORKASPACE' ) );
#83 = UNCERTAINTY_MEASURE_WITH_UNIT (LENGTH_MEASURE( 1.000000000000000082E-05 ), #193, 'distance_accuracy_value', 'NONE');
#84 = MANIFOLD_SOLID_BREP ( 'Corps-Déplacer/Copier1[2]', #79 ) ;
#85 = DIRECTION ( 'NONE',  ( 1.000000000000000000, 0.0000000000000000000, 0.0000000000000000000 ) ) ;
#86 = CALENDAR_DATE ( 2021, 9, 11 ) ;
#87 = ORIENTED_EDGE ( 'NONE', *, *, #44, .T. ) ;
#88 = APPROVAL_ROLE ( '' ) ;
#89 = COORDINATED_UNIVERSAL_TIME_OFFSET ( 1, 0, .AHEAD. ) ;
#90 = EDGE_LOOP ( 'NONE', ( #134 ) ) ;
#91 = AXIS2_PLACEMENT_3D ( 'NONE', #31, #199, #11 ) ;
#92 = COORDINATED_UNIVERSAL_TIME_OFFSET ( 1, 0, .AHEAD. ) ;
#93 = PLANE ( 'NONE',  #164 ) ;
#94 = APPLICATION_CONTEXT ( 'configuration controlled 3d designs of mechanical parts and assemblies' ) ;
#95 = DIRECTION ( 'NONE',  ( -3.491481338843133355E-15, 1.224646799147353207E-16, -1.000000000000000000 ) ) ;
#96 = CC_DESIGN_SECURITY_CLASSIFICATION ( #195, ( #167 ) ) ;
#97 = VERTEX_POINT ( 'NONE', #18 ) ;
#98 = PERSON_AND_ORGANIZATION ( #200, #3 ) ;
#99 = VERTEX_POINT ( 'NONE', #183 ) ;
#100 = EDGE_CURVE ( 'NONE', #99, #99, #108, .T. ) ;
#101 = PERSON_AND_ORGANIZATION ( #200, #3 ) ;
#102 = LOCAL_TIME ( 9, 31, 31.00000000000000000, #123 ) ;
#103 = PERSON_AND_ORGANIZATION_ROLE ( 'creator' ) ;
#104 = PERSON_AND_ORGANIZATION ( #200, #3 ) ;
#105 = DIRECTION ( 'NONE',  ( -3.491481338843133355E-15, 1.224646799147353207E-16, -1.000000000000000000 ) ) ;
#106 = DATE_AND_TIME ( #186, #187 ) ;
#107 = DIRECTION ( 'NONE',  ( 3.491481338843133355E-15, -1.224646799147353207E-16, 1.000000000000000000 ) ) ;
#108 = CIRCLE ( 'NONE', #17, 2.500000000000000000 ) ;
#109 = CC_DESIGN_PERSON_AND_ORGANIZATION_ASSIGNMENT ( #121, #72, ( #167 ) ) ;
#110 = DIRECTION ( 'NONE',  ( 3.491481338843133355E-15, -1.224646799147353207E-16, 1.000000000000000000 ) ) ;
#111 = APPLICATION_CONTEXT ( 'configuration controlled 3d designs of mechanical parts and assemblies' ) ;
#112 = DIRECTION ( 'NONE',  ( 0.0000000000000000000, 1.000000000000000000, 0.0000000000000000000 ) ) ;
#113 = ADVANCED_FACE ( 'NONE', ( #45 ), #93, .T. ) ;
#114 = ADVANCED_BREP_SHAPE_REPRESENTATION ( '34624', ( #12, #84, #27 ), #82 ) ;
#115 = PRODUCT_DEFINITION ( 'UNKNOWN', '', #167, #2 ) ;
#116 = AXIS2_PLACEMENT_3D ( 'NONE', #13, #176, #112 ) ;
#117 = EDGE_LOOP ( 'NONE', ( #47 ) ) ;
#118 = MECHANICAL_CONTEXT ( 'NONE', #111, 'mechanical' ) ;
#119 = ADVANCED_FACE ( 'NONE', ( #80 ), #178, .F. ) ;
#120 = ORIENTED_EDGE ( 'NONE', *, *, #8, .T. ) ;
#121 = PERSON_AND_ORGANIZATION ( #200, #3 ) ;
#122 = EDGE_LOOP ( 'NONE', ( #185 ) ) ;
#123 = COORDINATED_UNIVERSAL_TIME_OFFSET ( 1, 0, .AHEAD. ) ;
#124 = DIRECTION ( 'NONE',  ( -4.275831445896958607E-31, -1.000000000000000000, -1.224646799147353207E-16 ) ) ;
#125 = CARTESIAN_POINT ( 'NONE',  ( 1.745740669421566678E-13, -6.123233995736766085E-15, 50.00000000000000000 ) ) ;
#126 = CARTESIAN_POINT ( 'NONE',  ( 1.745740669421566678E-13, -6.123233995736766085E-15, 50.00000000000000000 ) ) ;
#127 = DIRECTION ( 'NONE',  ( -3.491481338843133355E-15, 1.224646799147353207E-16, -1.000000000000000000 ) ) ;
#128 = CC_DESIGN_DATE_AND_TIME_ASSIGNMENT ( #155, #168, ( #115 ) ) ;
#129 = EDGE_LOOP ( 'NONE', ( #194 ) ) ;
#130 = FACE_OUTER_BOUND ( 'NONE', #196, .T. ) ;
#131 = AXIS2_PLACEMENT_3D ( 'NONE', #57, #143, #55 ) ;
#132 = ORIENTED_EDGE ( 'NONE', *, *, #100, .F. ) ;
#133 = PERSON_AND_ORGANIZATION ( #200, #3 ) ;
#134 = ORIENTED_EDGE ( 'NONE', *, *, #53, .F. ) ;
#135 = DIRECTION ( 'NONE',  ( 0.0000000000000000000, 0.0000000000000000000, 1.000000000000000000 ) ) ;
#136 = APPROVAL_PERSON_ORGANIZATION ( #104, #14, #60 ) ;
#137 = EDGE_LOOP ( 'NONE', ( #189 ) ) ;
#138 = VERTEX_POINT ( 'NONE', #37 ) ;
#139 =( NAMED_UNIT ( * ) SI_UNIT ( $, .STERADIAN. ) SOLID_ANGLE_UNIT ( ) );
#140 = PERSON_AND_ORGANIZATION_ROLE ( 'classification_officer' ) ;
#141 = FACE_OUTER_BOUND ( 'NONE', #129, .T. ) ;
#142 = CONICAL_SURFACE ( 'NONE', #51, 2.500000000000000000, 0.7853981633974479459 ) ;
#143 = DIRECTION ( 'NONE',  ( -3.491481338843133355E-15, 1.224646799147353207E-16, -1.000000000000000000 ) ) ;
#144 = CARTESIAN_POINT ( 'NONE',  ( 5.586370142149013368E-14, 2.249639673992780391E-32, 16.00000000000000000 ) ) ;
#145 = FACE_OUTER_BOUND ( 'NONE', #137, .T. ) ;
#146 = CC_DESIGN_PERSON_AND_ORGANIZATION_ASSIGNMENT ( #52, #10, ( #167 ) ) ;
#147 = EDGE_LOOP ( 'NONE', ( #161 ) ) ;
#148 = DIRECTION ( 'NONE',  ( 4.275831445896958607E-31, 1.000000000000000000, 1.224646799147353207E-16 ) ) ;
#149 = APPROVAL_PERSON_ORGANIZATION ( #101, #16, #21 ) ;
#150 = APPROVAL_PERSON_ORGANIZATION ( #7, #41, #88 ) ;
#151 = CALENDAR_DATE ( 2021, 9, 11 ) ;
#152 = ADVANCED_FACE ( 'NONE', ( #130 ), #190, .F. ) ;
#153 = CARTESIAN_POINT ( 'NONE',  ( 1.728283262727351074E-13, 2.999999999999993783, 49.50000000000000000 ) ) ;
#154 = APPLICATION_PROTOCOL_DEFINITION ( 'international standard', 'config_control_design', 1994, #94 ) ;
#155 = DATE_AND_TIME ( #151, #165 ) ;
#156 = SHAPE_DEFINITION_REPRESENTATION ( #70, #114 ) ;
#157 = CIRCLE ( 'NONE', #91, 2.999999999999996003 ) ;
#158 = FACE_OUTER_BOUND ( 'NONE', #122, .T. ) ;
#159 = CC_DESIGN_APPROVAL ( #41, ( #115 ) ) ;
#160 = FACE_OUTER_BOUND ( 'NONE', #20, .T. ) ;
#161 = ORIENTED_EDGE ( 'NONE', *, *, #64, .F. ) ;
#162 = CALENDAR_DATE ( 2021, 9, 11 ) ;
#163 = PLANE ( 'NONE',  #166 ) ;
#164 = AXIS2_PLACEMENT_3D ( 'NONE', #144, #110, #29 ) ;
#165 = LOCAL_TIME ( 9, 31, 31.00000000000000000, #89 ) ;
#166 = AXIS2_PLACEMENT_3D ( 'NONE', #201, #107, #124 ) ;
#167 = PRODUCT_DEFINITION_FORMATION_WITH_SPECIFIED_SOURCE ( 'ANY', '', #35, .NOT_KNOWN. ) ;
#168 = DATE_TIME_ROLE ( 'creation_date' ) ;
#169 = APPLICATION_PROTOCOL_DEFINITION ( 'international standard', 'config_control_design', 1994, #111 ) ;
#170 = PERSON_AND_ORGANIZATION_ROLE ( 'design_owner' ) ;
#171 = DATE_AND_TIME ( #69, #102 ) ;
#172 = DIRECTION ( 'NONE',  ( 3.491481338843133355E-15, -1.224646799147353207E-16, 1.000000000000000000 ) ) ;
#173 = APPROVAL_STATUS ( 'not_yet_approved' ) ;
#174 = EDGE_LOOP ( 'NONE', ( #87 ) ) ;
#175 = AXIS2_PLACEMENT_3D ( 'NONE', #59, #172, #24 ) ;
#176 = DIRECTION ( 'NONE',  ( -3.491481338843133355E-15, 1.224646799147353207E-16, -1.000000000000000000 ) ) ;
#177 = DIRECTION ( 'NONE',  ( 0.0000000000000000000, 1.000000000000000000, 0.0000000000000000000 ) ) ;
#178 = PLANE ( 'NONE',  #175 ) ;
#179 = ORIENTED_EDGE ( 'NONE', *, *, #44, .F. ) ;
#180 = CC_DESIGN_PERSON_AND_ORGANIZATION_ASSIGNMENT ( #133, #170, ( #35 ) ) ;
#181 =( NAMED_UNIT ( * ) PLANE_ANGLE_UNIT ( ) SI_UNIT ( $, .RADIAN. ) );
#182 = CC_DESIGN_PERSON_AND_ORGANIZATION_ASSIGNMENT ( #22, #140, ( #195 ) ) ;
#183 = CARTESIAN_POINT ( 'NONE',  ( 1.745740669421566678E-13, 2.499999999999993783, 50.00000000000000000 ) ) ;
#184 = CYLINDRICAL_SURFACE ( 'NONE', #32, 2.999999999999998224 ) ;
#185 = ORIENTED_EDGE ( 'NONE', *, *, #64, .T. ) ;
#186 = CALENDAR_DATE ( 2021, 9, 11 ) ;
#187 = LOCAL_TIME ( 9, 31, 31.00000000000000000, #203 ) ;
#188 = DIRECTION ( 'NONE',  ( -3.491481338843133355E-15, 1.224646799147353207E-16, -1.000000000000000000 ) ) ;
#189 = ORIENTED_EDGE ( 'NONE', *, *, #8, .F. ) ;
#190 = PLANE ( 'NONE',  #66 ) ;
#191 = CC_DESIGN_APPROVAL ( #14, ( #195 ) ) ;
#192 = CIRCLE ( 'NONE', #131, 2.999999999999993783 ) ;
#193 =( LENGTH_UNIT ( ) NAMED_UNIT ( * ) SI_UNIT ( .MILLI., .METRE. ) );
#194 = ORIENTED_EDGE ( 'NONE', *, *, #53, .T. ) ;
#195 = SECURITY_CLASSIFICATION ( '', '', #38 ) ;
#196 = EDGE_LOOP ( 'NONE', ( #132 ) ) ;
#197 = CARTESIAN_POINT ( 'NONE',  ( 0.0000000000000000000, 0.0000000000000000000, 0.0000000000000000000 ) ) ;
#198 = CIRCLE ( 'NONE', #116, 2.999999999999996003 ) ;
#199 = DIRECTION ( 'NONE',  ( -3.491481338843133355E-15, 1.224646799147353207E-16, -1.000000000000000000 ) ) ;
#200 = PERSON ( 'UNSPECIFIED', 'UNSPECIFIED', 'UNSPECIFIED', ('UNSPECIFIED'), ('UNSPECIFIED'), ('UNSPECIFIED') ) ;
#201 = CARTESIAN_POINT ( 'NONE',  ( 5.586370142149013368E-14, 2.249639673992780391E-32, 16.00000000000000000 ) ) ;
#202 = DIRECTION ( 'NONE',  ( 0.0000000000000000000, 1.000000000000000000, 0.0000000000000000000 ) ) ;
#203 = COORDINATED_UNIVERSAL_TIME_OFFSET ( 1, 0, .AHEAD. ) ;
ENDSEC;
END-ISO-10303-21;
