ISO-10303-21;
HEADER;
FILE_DESCRIPTION (( 'STEP AP203' ),
    '1' );
FILE_NAME ('34623.step',
    '2021-11-09T08:31:30',
    ( '' ),
    ( '' ),
    'SwSTEP 2.0',
    'SolidWorks 2019',
    '' );
FILE_SCHEMA (( 'CONFIG_CONTROL_DESIGN' ));
ENDSEC;

DATA;
#1 = LOCAL_TIME ( 9, 31, 30.00000000000000000, #54 ) ;
#2 = APPROVAL_PERSON_ORGANIZATION ( #186, #170, #72 ) ;
#3 = CARTESIAN_POINT ( 'NONE',  ( -2.565494542949945634E-30, 8.998543527357543211E-32, -7.347868408771149472E-16 ) ) ;
#4 = CARTESIAN_POINT ( 'NONE',  ( 4.888073874380386697E-14, 1.874699728327314346E-32, 14.00000000000000000 ) ) ;
#5 = DIRECTION ( 'NONE',  ( -4.275831445896958607E-31, -1.000000000000000000, -1.224646799147353207E-16 ) ) ;
#6 = CARTESIAN_POINT ( 'NONE',  ( 1.745740669421566678E-13, 1.999999999999991340, 50.00000000000000000 ) ) ;
#7 = ADVANCED_FACE ( 'NONE', ( #188, #120 ), #122, .T. ) ;
#8 = ORIENTED_EDGE ( 'NONE', *, *, #180, .F. ) ;
#9 = PRODUCT_RELATED_PRODUCT_CATEGORY ( 'detail', '', ( #58 ) ) ;
#10 = DATE_AND_TIME ( #200, #148 ) ;
#11 = EDGE_LOOP ( 'NONE', ( #203 ) ) ;
#12 = DATE_AND_TIME ( #41, #37 ) ;
#13 = DIRECTION ( 'NONE',  ( 0.0000000000000000000, 1.000000000000000000, 0.0000000000000000000 ) ) ;
#14 = AXIS2_PLACEMENT_3D ( 'NONE', #75, #79, #182 ) ;
#15 = ORIENTED_EDGE ( 'NONE', *, *, #94, .T. ) ;
#16 = CC_DESIGN_DATE_AND_TIME_ASSIGNMENT ( #12, #104, ( #47 ) ) ;
#17 = CONICAL_SURFACE ( 'NONE', #169, 1.999999999999997335, 0.7853981633974479459 ) ;
#18 = AXIS2_PLACEMENT_3D ( 'NONE', #19, #99, #5 ) ;
#19 = CARTESIAN_POINT ( 'NONE',  ( -1.282747271474972817E-30, 4.499271763678771606E-32, -3.673934204385574736E-16 ) ) ;
#20 = DIRECTION ( 'NONE',  ( 1.000000000000000000, 0.0000000000000000000, 0.0000000000000000000 ) ) ;
#21 = MANIFOLD_SOLID_BREP ( 'Corps-Déplacer/Copier1[1]', #36 ) ;
#22 = APPROVAL_ROLE ( '' ) ;
#23 = ORIENTED_EDGE ( 'NONE', *, *, #97, .F. ) ;
#24 = APPROVAL_DATE_TIME ( #86, #162 ) ;
#25 = DIRECTION ( 'NONE',  ( -3.491481338843133355E-15, 1.224646799147353207E-16, -1.000000000000000000 ) ) ;
#26 = APPROVAL_DATE_TIME ( #10, #170 ) ;
#27 = CARTESIAN_POINT ( 'NONE',  ( 1.728283262727351074E-13, -6.062001655779398511E-15, 49.50000000000000000 ) ) ;
#28 = PERSON_AND_ORGANIZATION ( #62, #109 ) ;
#29 = ORIENTED_EDGE ( 'NONE', *, *, #94, .F. ) ;
#30 = DIRECTION ( 'NONE',  ( 0.0000000000000000000, 1.000000000000000000, 0.0000000000000000000 ) ) ;
#31 = LOCAL_TIME ( 9, 31, 30.00000000000000000, #151 ) ;
#32 = VERTEX_POINT ( 'NONE', #6 ) ;
#33 = ADVANCED_FACE ( 'NONE', ( #43 ), #185, .F. ) ;
#34 = CIRCLE ( 'NONE', #131, 1.999999999999997335 ) ;
#35 = CC_DESIGN_PERSON_AND_ORGANIZATION_ASSIGNMENT ( #158, #60, ( #168 ) ) ;
#36 = CLOSED_SHELL ( 'NONE', ( #33, #7, #71, #134 ) ) ;
#37 = LOCAL_TIME ( 9, 31, 30.00000000000000000, #137 ) ;
#38 = EDGE_CURVE ( 'NONE', #129, #129, #199, .T. ) ;
#39 = COORDINATED_UNIVERSAL_TIME_OFFSET ( 1, 0, .AHEAD. ) ;
#40 = DIRECTION ( 'NONE',  ( 4.275831445896958607E-31, 1.000000000000000000, 1.224646799147352961E-16 ) ) ;
#41 = CALENDAR_DATE ( 2021, 9, 11 ) ;
#42 = CIRCLE ( 'NONE', #196, 2.499999999999991562 ) ;
#43 = FACE_OUTER_BOUND ( 'NONE', #11, .T. ) ;
#44 = ORIENTED_EDGE ( 'NONE', *, *, #38, .T. ) ;
#45 = APPROVAL_DATE_TIME ( #156, #202 ) ;
#46 = CARTESIAN_POINT ( 'NONE',  ( 4.888073874380386697E-14, 1.874699728327314346E-32, 14.00000000000000000 ) ) ;
#47 = SECURITY_CLASSIFICATION ( '', '', #197 ) ;
#48 = PLANE ( 'NONE',  #85 ) ;
#49 = DIRECTION ( 'NONE',  ( 4.275831445896957731E-31, 1.000000000000000000, 1.224646799147352961E-16 ) ) ;
#50 = AXIS2_PLACEMENT_3D ( 'NONE', #27, #143, #201 ) ;
#51 = CARTESIAN_POINT ( 'NONE',  ( 4.888073874380386697E-14, 2.499999999999991562, 14.00000000000000000 ) ) ;
#52 = APPLICATION_PROTOCOL_DEFINITION ( 'international standard', 'config_control_design', 1994, #193 ) ;
#53 = ADVANCED_FACE ( 'NONE', ( #179, #187 ), #92, .T. ) ;
#54 = COORDINATED_UNIVERSAL_TIME_OFFSET ( 1, 0, .AHEAD. ) ;
#55 = DIRECTION ( 'NONE',  ( -3.491481338843133355E-15, 1.224646799147353207E-16, -1.000000000000000000 ) ) ;
#56 = CALENDAR_DATE ( 2021, 9, 11 ) ;
#57 = DIRECTION ( 'NONE',  ( 4.275831445896958607E-31, 1.000000000000000000, 1.224646799147353207E-16 ) ) ;
#58 = PRODUCT ( '34623', '34623', '', ( #130 ) ) ;
#59 = CARTESIAN_POINT ( 'NONE',  ( 0.0000000000000000000, 0.0000000000000000000, 0.0000000000000000000 ) ) ;
#60 = PERSON_AND_ORGANIZATION_ROLE ( 'creator' ) ;
#61 = DIRECTION ( 'NONE',  ( 3.491481338843133355E-15, -1.224646799147353207E-16, 1.000000000000000000 ) ) ;
#62 = PERSON ( 'UNSPECIFIED', 'UNSPECIFIED', 'UNSPECIFIED', ('UNSPECIFIED'), ('UNSPECIFIED'), ('UNSPECIFIED') ) ;
#63 = EDGE_LOOP ( 'NONE', ( #140 ) ) ;
#64 = DIRECTION ( 'NONE',  ( -3.491481338843133355E-15, 1.224646799147353207E-16, -1.000000000000000000 ) ) ;
#65 = DIRECTION ( 'NONE',  ( -3.491481338843133355E-15, 1.224646799147353207E-16, -1.000000000000000000 ) ) ;
#66 = DIRECTION ( 'NONE',  ( -4.275831445896958607E-31, -1.000000000000000000, -1.224646799147353207E-16 ) ) ;
#67 =( NAMED_UNIT ( * ) SI_UNIT ( $, .STERADIAN. ) SOLID_ANGLE_UNIT ( ) );
#68 = CC_DESIGN_DATE_AND_TIME_ASSIGNMENT ( #184, #119, ( #181 ) ) ;
#69 = EDGE_LOOP ( 'NONE', ( #23 ) ) ;
#70 = DIRECTION ( 'NONE',  ( 0.0000000000000000000, 0.0000000000000000000, 1.000000000000000000 ) ) ;
#71 = ADVANCED_FACE ( 'NONE', ( #90, #161 ), #17, .T. ) ;
#72 = APPROVAL_ROLE ( '' ) ;
#73 = DIRECTION ( 'NONE',  ( -3.491481338843133355E-15, 1.224646799147353207E-16, -1.000000000000000000 ) ) ;
#74 = APPROVAL_ROLE ( '' ) ;
#75 = CARTESIAN_POINT ( 'NONE',  ( 1.745740669421566678E-13, 1.499759782661846660E-32, 50.00000000000000000 ) ) ;
#76 = APPROVAL_STATUS ( 'not_yet_approved' ) ;
#77 = EDGE_LOOP ( 'NONE', ( #157 ) ) ;
#78 = CALENDAR_DATE ( 2021, 9, 11 ) ;
#79 = DIRECTION ( 'NONE',  ( -3.491481338843133355E-15, 1.224646799147353207E-16, -1.000000000000000000 ) ) ;
#80 = CARTESIAN_POINT ( 'NONE',  ( 1.745740669421566678E-13, -6.123233995736766085E-15, 50.00000000000000000 ) ) ;
#81 = CIRCLE ( 'NONE', #84, 2.499999999999992895 ) ;
#82 = FACE_OUTER_BOUND ( 'NONE', #136, .T. ) ;
#83 = CARTESIAN_POINT ( 'NONE',  ( 0.0000000000000000000, 0.0000000000000000000, 0.0000000000000000000 ) ) ;
#84 = AXIS2_PLACEMENT_3D ( 'NONE', #107, #25, #13 ) ;
#85 = AXIS2_PLACEMENT_3D ( 'NONE', #4, #145, #66 ) ;
#86 = DATE_AND_TIME ( #78, #1 ) ;
#87 = AXIS2_PLACEMENT_3D ( 'NONE', #59, #152, #57 ) ;
#88 = APPROVAL_PERSON_ORGANIZATION ( #123, #162, #74 ) ;
#89 = AXIS2_PLACEMENT_3D ( 'NONE', #83, #70, #20 ) ;
#90 = FACE_OUTER_BOUND ( 'NONE', #63, .T. ) ;
#91 = SHAPE_DEFINITION_REPRESENTATION ( #111, #147 ) ;
#92 = CYLINDRICAL_SURFACE ( 'NONE', #103, 2.499999999999992450 ) ;
#93 = DIRECTION ( 'NONE',  ( -3.491481338843133355E-15, 1.224646799147353207E-16, -1.000000000000000000 ) ) ;
#94 = EDGE_CURVE ( 'NONE', #126, #126, #81, .T. ) ;
#95 = CARTESIAN_POINT ( 'NONE',  ( 0.0000000000000000000, 0.0000000000000000000, 0.0000000000000000000 ) ) ;
#96 = CARTESIAN_POINT ( 'NONE',  ( 1.728283262727351074E-13, 2.499999999999991562, 49.50000000000000000 ) ) ;
#97 = EDGE_CURVE ( 'NONE', #110, #110, #141, .T. ) ;
#98 =( LENGTH_UNIT ( ) NAMED_UNIT ( * ) SI_UNIT ( .MILLI., .METRE. ) );
#99 = DIRECTION ( 'NONE',  ( 3.491481338843133355E-15, -1.224646799147353207E-16, 1.000000000000000000 ) ) ;
#100 = EDGE_LOOP ( 'NONE', ( #44 ) ) ;
#101 = EDGE_LOOP ( 'NONE', ( #125 ) ) ;
#102 = PERSON_AND_ORGANIZATION_ROLE ( 'classification_officer' ) ;
#103 = AXIS2_PLACEMENT_3D ( 'NONE', #95, #55, #40 ) ;
#104 = DATE_TIME_ROLE ( 'classification_date' ) ;
#105 = FACE_OUTER_BOUND ( 'NONE', #178, .T. ) ;
#106 = PERSON_AND_ORGANIZATION_ROLE ( 'design_supplier' ) ;
#107 = CARTESIAN_POINT ( 'NONE',  ( 4.888073874380386697E-14, -1.714505518806294638E-15, 14.00000000000000000 ) ) ;
#108 = DIRECTION ( 'NONE',  ( -4.275831445896958607E-31, -1.000000000000000000, -1.224646799147353207E-16 ) ) ;
#109 = ORGANIZATION ( 'UNSPECIFIED', 'UNSPECIFIED', '' ) ;
#110 = VERTEX_POINT ( 'NONE', #51 ) ;
#111 = PRODUCT_DEFINITION_SHAPE ( 'NONE', 'NONE',  #181 ) ;
#112 = VERTEX_POINT ( 'NONE', #163 ) ;
#113 = LOCAL_TIME ( 9, 31, 30.00000000000000000, #135 ) ;
#114 = CC_DESIGN_SECURITY_CLASSIFICATION ( #47, ( #168 ) ) ;
#115 = PERSON_AND_ORGANIZATION ( #62, #109 ) ;
#116 = CC_DESIGN_PERSON_AND_ORGANIZATION_ASSIGNMENT ( #176, #102, ( #47 ) ) ;
#117 = APPROVAL_STATUS ( 'not_yet_approved' ) ;
#118 = APPLICATION_PROTOCOL_DEFINITION ( 'international standard', 'config_control_design', 1994, #139 ) ;
#119 = DATE_TIME_ROLE ( 'creation_date' ) ;
#120 = FACE_OUTER_BOUND ( 'NONE', #100, .T. ) ;
#121 = CC_DESIGN_APPROVAL ( #202, ( #181 ) ) ;
#122 = CYLINDRICAL_SURFACE ( 'NONE', #87, 2.499999999999995115 ) ;
#123 = PERSON_AND_ORGANIZATION ( #62, #109 ) ;
#124 = CARTESIAN_POINT ( 'NONE',  ( 1.745740669421566678E-13, -6.123233995736766085E-15, 50.00000000000000000 ) ) ;
#125 = ORIENTED_EDGE ( 'NONE', *, *, #180, .T. ) ;
#126 = VERTEX_POINT ( 'NONE', #189 ) ;
#127 = AXIS2_PLACEMENT_3D ( 'NONE', #46, #61, #108 ) ;
#128 = CC_DESIGN_PERSON_AND_ORGANIZATION_ASSIGNMENT ( #28, #106, ( #168 ) ) ;
#129 = VERTEX_POINT ( 'NONE', #96 ) ;
#130 = MECHANICAL_CONTEXT ( 'NONE', #193, 'mechanical' ) ;
#131 = AXIS2_PLACEMENT_3D ( 'NONE', #80, #65, #30 ) ;
#132 = EDGE_LOOP ( 'NONE', ( #144 ) ) ;
#133 =( GEOMETRIC_REPRESENTATION_CONTEXT ( 3 ) GLOBAL_UNCERTAINTY_ASSIGNED_CONTEXT ( ( #173 ) ) GLOBAL_UNIT_ASSIGNED_CONTEXT ( ( #98, #166, #67 ) ) REPRESENTATION_CONTEXT ( 'NONE', 'WORKASPACE' ) );
#134 = ADVANCED_FACE ( 'NONE', ( #105 ), #177, .F. ) ;
#135 = COORDINATED_UNIVERSAL_TIME_OFFSET ( 1, 0, .AHEAD. ) ;
#136 = EDGE_LOOP ( 'NONE', ( #29 ) ) ;
#137 = COORDINATED_UNIVERSAL_TIME_OFFSET ( 1, 0, .AHEAD. ) ;
#138 = DIRECTION ( 'NONE',  ( 0.0000000000000000000, 1.000000000000000000, 0.0000000000000000000 ) ) ;
#139 = APPLICATION_CONTEXT ( 'configuration controlled 3d designs of mechanical parts and assemblies' ) ;
#140 = ORIENTED_EDGE ( 'NONE', *, *, #38, .F. ) ;
#141 = CIRCLE ( 'NONE', #190, 2.499999999999992895 ) ;
#142 = PERSON_AND_ORGANIZATION_ROLE ( 'creator' ) ;
#143 = DIRECTION ( 'NONE',  ( -3.491481338843133355E-15, 1.224646799147353207E-16, -1.000000000000000000 ) ) ;
#144 = ORIENTED_EDGE ( 'NONE', *, *, #194, .T. ) ;
#145 = DIRECTION ( 'NONE',  ( 3.491481338843133355E-15, -1.224646799147353207E-16, 1.000000000000000000 ) ) ;
#146 = ADVANCED_FACE ( 'NONE', ( #191 ), #167, .F. ) ;
#147 = ADVANCED_BREP_SHAPE_REPRESENTATION ( '34623', ( #21, #172, #89 ), #133 ) ;
#148 = LOCAL_TIME ( 9, 31, 30.00000000000000000, #39 ) ;
#149 = DESIGN_CONTEXT ( 'detailed design', #139, 'design' ) ;
#150 = CLOSED_SHELL ( 'NONE', ( #146, #53, #175 ) ) ;
#151 = COORDINATED_UNIVERSAL_TIME_OFFSET ( 1, 0, .AHEAD. ) ;
#152 = DIRECTION ( 'NONE',  ( -3.491481338843133355E-15, 1.224646799147353207E-16, -1.000000000000000000 ) ) ;
#153 = PERSON_AND_ORGANIZATION ( #62, #109 ) ;
#154 = CC_DESIGN_PERSON_AND_ORGANIZATION_ASSIGNMENT ( #115, #183, ( #58 ) ) ;
#155 = DIRECTION ( 'NONE',  ( 0.0000000000000000000, 1.000000000000000000, 0.0000000000000000000 ) ) ;
#156 = DATE_AND_TIME ( #56, #113 ) ;
#157 = ORIENTED_EDGE ( 'NONE', *, *, #194, .F. ) ;
#158 = PERSON_AND_ORGANIZATION ( #62, #109 ) ;
#159 = CC_DESIGN_APPROVAL ( #162, ( #47 ) ) ;
#160 = EDGE_LOOP ( 'NONE', ( #15 ) ) ;
#161 = FACE_BOUND ( 'NONE', #101, .T. ) ;
#162 = APPROVAL ( #174, 'UNSPECIFIED' ) ;
#163 = CARTESIAN_POINT ( 'NONE',  ( -1.496536681475709748E-30, 2.499999999999991562, -4.286251410902776685E-16 ) ) ;
#164 = APPROVAL_PERSON_ORGANIZATION ( #195, #202, #22 ) ;
#165 = CC_DESIGN_PERSON_AND_ORGANIZATION_ASSIGNMENT ( #153, #142, ( #181 ) ) ;
#166 =( NAMED_UNIT ( * ) PLANE_ANGLE_UNIT ( ) SI_UNIT ( $, .RADIAN. ) );
#167 = PLANE ( 'NONE',  #18 ) ;
#168 = PRODUCT_DEFINITION_FORMATION_WITH_SPECIFIED_SOURCE ( 'ANY', '', #58, .NOT_KNOWN. ) ;
#169 = AXIS2_PLACEMENT_3D ( 'NONE', #124, #73, #138 ) ;
#170 = APPROVAL ( #76, 'UNSPECIFIED' ) ;
#171 = CALENDAR_DATE ( 2021, 9, 11 ) ;
#172 = MANIFOLD_SOLID_BREP ( 'Corps-Déplacer/Copier1[2]', #150 ) ;
#173 = UNCERTAINTY_MEASURE_WITH_UNIT (LENGTH_MEASURE( 1.000000000000000082E-05 ), #98, 'distance_accuracy_value', 'NONE');
#174 = APPROVAL_STATUS ( 'not_yet_approved' ) ;
#175 = ADVANCED_FACE ( 'NONE', ( #82 ), #48, .T. ) ;
#176 = PERSON_AND_ORGANIZATION ( #62, #109 ) ;
#177 = PLANE ( 'NONE',  #14 ) ;
#178 = EDGE_LOOP ( 'NONE', ( #8 ) ) ;
#179 = FACE_OUTER_BOUND ( 'NONE', #77, .T. ) ;
#180 = EDGE_CURVE ( 'NONE', #32, #32, #34, .T. ) ;
#181 = PRODUCT_DEFINITION ( 'UNKNOWN', '', #168, #149 ) ;
#182 = DIRECTION ( 'NONE',  ( 4.275831445896958607E-31, 1.000000000000000000, 1.224646799147353207E-16 ) ) ;
#183 = PERSON_AND_ORGANIZATION_ROLE ( 'design_owner' ) ;
#184 = DATE_AND_TIME ( #171, #31 ) ;
#185 = PLANE ( 'NONE',  #127 ) ;
#186 = PERSON_AND_ORGANIZATION ( #62, #109 ) ;
#187 = FACE_OUTER_BOUND ( 'NONE', #160, .T. ) ;
#188 = FACE_OUTER_BOUND ( 'NONE', #69, .T. ) ;
#189 = CARTESIAN_POINT ( 'NONE',  ( 4.888073874380386697E-14, 2.499999999999991562, 14.00000000000000000 ) ) ;
#190 = AXIS2_PLACEMENT_3D ( 'NONE', #198, #93, #155 ) ;
#191 = FACE_OUTER_BOUND ( 'NONE', #132, .T. ) ;
#192 = CC_DESIGN_APPROVAL ( #170, ( #168 ) ) ;
#193 = APPLICATION_CONTEXT ( 'configuration controlled 3d designs of mechanical parts and assemblies' ) ;
#194 = EDGE_CURVE ( 'NONE', #112, #112, #42, .T. ) ;
#195 = PERSON_AND_ORGANIZATION ( #62, #109 ) ;
#196 = AXIS2_PLACEMENT_3D ( 'NONE', #3, #64, #49 ) ;
#197 = SECURITY_CLASSIFICATION_LEVEL ( 'unclassified' ) ;
#198 = CARTESIAN_POINT ( 'NONE',  ( 4.888073874380386697E-14, -1.714505518806294638E-15, 14.00000000000000000 ) ) ;
#199 = CIRCLE ( 'NONE', #50, 2.499999999999997335 ) ;
#200 = CALENDAR_DATE ( 2021, 9, 11 ) ;
#201 = DIRECTION ( 'NONE',  ( 0.0000000000000000000, 1.000000000000000000, 0.0000000000000000000 ) ) ;
#202 = APPROVAL ( #117, 'UNSPECIFIED' ) ;
#203 = ORIENTED_EDGE ( 'NONE', *, *, #97, .T. ) ;
ENDSEC;
END-ISO-10303-21;
