ISO-10303-21;
HEADER;
FILE_DESCRIPTION (( 'STEP AP203' ),
    '1' );
FILE_NAME ('34590.step',
    '2021-12-06T12:58:59',
    ( '' ),
    ( '' ),
    'SwSTEP 2.0',
    'SolidWorks 2019',
    '' );
FILE_SCHEMA (( 'CONFIG_CONTROL_DESIGN' ));
ENDSEC;

DATA;
#1 = DATE_AND_TIME ( #20, #23 ) ;
#2 = CARTESIAN_POINT ( 'NONE',  ( -9.620620753268153624E-30, 2.500000000000000444, -2.755455298081543989E-15 ) ) ;
#3 = APPLICATION_PROTOCOL_DEFINITION ( 'international standard', 'config_control_design', 1994, #99 ) ;
#4 = CARTESIAN_POINT ( 'NONE',  ( 0.0000000000000000000, 0.0000000000000000000, 0.0000000000000000000 ) ) ;
#5 = CLOSED_SHELL ( 'NONE', ( #125, #61, #79, #47 ) ) ;
#6 = PRODUCT_DEFINITION_FORMATION_WITH_SPECIFIED_SOURCE ( 'ANY', '', #98, .NOT_KNOWN. ) ;
#7 = EDGE_LOOP ( 'NONE', ( #16 ) ) ;
#8 = ORGANIZATION ( 'UNSPECIFIED', 'UNSPECIFIED', '' ) ;
#9 = EDGE_CURVE ( 'NONE', #19, #19, #153, .T. ) ;
#10 = APPROVAL_DATE_TIME ( #107, #135 ) ;
#11 = APPROVAL_PERSON_ORGANIZATION ( #53, #135, #34 ) ;
#12 = EDGE_LOOP ( 'NONE', ( #69 ) ) ;
#13 = DESIGN_CONTEXT ( 'detailed design', #109, 'design' ) ;
#14 = FACE_OUTER_BOUND ( 'NONE', #152, .T. ) ;
#15 = CARTESIAN_POINT ( 'NONE',  ( 0.0000000000000000000, 0.0000000000000000000, 0.0000000000000000000 ) ) ;
#16 = ORIENTED_EDGE ( 'NONE', *, *, #97, .F. ) ;
#17 = PRODUCT_DEFINITION_SHAPE ( 'NONE', 'NONE',  #88 ) ;
#18 = PLANE ( 'NONE',  #60 ) ;
#19 = VERTEX_POINT ( 'NONE', #119 ) ;
#20 = CALENDAR_DATE ( 2021, 6, 12 ) ;
#21 = DATE_AND_TIME ( #121, #54 ) ;
#22 = APPROVAL_STATUS ( 'not_yet_approved' ) ;
#23 = LOCAL_TIME ( 13, 58, 59.00000000000000000, #120 ) ;
#24 = CIRCLE ( 'NONE', #145, 2.500000000000000444 ) ;
#25 = CC_DESIGN_PERSON_AND_ORGANIZATION_ASSIGNMENT ( #161, #67, ( #110 ) ) ;
#26 = APPROVAL_DATE_TIME ( #1, #66 ) ;
#27 = DIRECTION ( 'NONE',  ( 2.565498867538175865E-30, 1.000000000000000000, 7.347880794884123680E-16 ) ) ;
#28 = FACE_OUTER_BOUND ( 'NONE', #80, .T. ) ;
#29 =( GEOMETRIC_REPRESENTATION_CONTEXT ( 3 ) GLOBAL_UNCERTAINTY_ASSIGNED_CONTEXT ( ( #32 ) ) GLOBAL_UNIT_ASSIGNED_CONTEXT ( ( #65, #37, #102 ) ) REPRESENTATION_CONTEXT ( 'NONE', 'WORKASPACE' ) );
#30 = PERSON_AND_ORGANIZATION ( #136, #8 ) ;
#31 = PRODUCT_RELATED_PRODUCT_CATEGORY ( 'detail', '', ( #98 ) ) ;
#32 = UNCERTAINTY_MEASURE_WITH_UNIT (LENGTH_MEASURE( 1.000000000000000082E-05 ), #65, 'distance_accuracy_value', 'NONE');
#33 = DIRECTION ( 'NONE',  ( -3.491481338843133355E-15, 7.347880794884122694E-16, -1.000000000000000000 ) ) ;
#34 = APPROVAL_ROLE ( '' ) ;
#35 = VERTEX_POINT ( 'NONE', #138 ) ;
#36 = CC_DESIGN_APPROVAL ( #144, ( #6 ) ) ;
#37 =( NAMED_UNIT ( * ) PLANE_ANGLE_UNIT ( ) SI_UNIT ( $, .RADIAN. ) );
#38 = CARTESIAN_POINT ( 'NONE',  ( 1.047444401652913777E-15, -2.204364238465181095E-16, 0.2999999999999924394 ) ) ;
#39 = SHAPE_DEFINITION_REPRESENTATION ( #17, #166 ) ;
#40 = CIRCLE ( 'NONE', #57, 9.999999999999994671 ) ;
#41 = EDGE_LOOP ( 'NONE', ( #124 ) ) ;
#42 = FACE_OUTER_BOUND ( 'NONE', #41, .T. ) ;
#43 = DATE_AND_TIME ( #75, #100 ) ;
#44 = DIRECTION ( 'NONE',  ( 0.0000000000000000000, 0.0000000000000000000, 1.000000000000000000 ) ) ;
#45 = CC_DESIGN_PERSON_AND_ORGANIZATION_ASSIGNMENT ( #30, #167, ( #98 ) ) ;
#46 = DIRECTION ( 'NONE',  ( -3.491481338843133355E-15, 7.347880794884122694E-16, -1.000000000000000000 ) ) ;
#47 = ADVANCED_FACE ( 'NONE', ( #42, #81 ), #91, .F. ) ;
#48 = APPROVAL_ROLE ( '' ) ;
#49 = CARTESIAN_POINT ( 'NONE',  ( 0.0000000000000000000, 9.999999999999994671, 0.0000000000000000000 ) ) ;
#50 = DATE_TIME_ROLE ( 'classification_date' ) ;
#51 = CIRCLE ( 'NONE', #74, 9.999999999999994671 ) ;
#52 = PERSON_AND_ORGANIZATION_ROLE ( 'design_supplier' ) ;
#53 = PERSON_AND_ORGANIZATION ( #136, #8 ) ;
#54 = LOCAL_TIME ( 13, 58, 59.00000000000000000, #106 ) ;
#55 = EDGE_LOOP ( 'NONE', ( #128 ) ) ;
#56 = CARTESIAN_POINT ( 'NONE',  ( -2.565498867538175234E-29, 5.399135217582689315E-30, -7.347880794884118356E-15 ) ) ;
#57 = AXIS2_PLACEMENT_3D ( 'NONE', #56, #72, #83 ) ;
#58 = DIRECTION ( 'NONE',  ( -3.491481338843133355E-15, 7.347880794884122694E-16, -1.000000000000000000 ) ) ;
#59 = ORIENTED_EDGE ( 'NONE', *, *, #84, .F. ) ;
#60 = AXIS2_PLACEMENT_3D ( 'NONE', #2, #132, #62 ) ;
#61 = ADVANCED_FACE ( 'NONE', ( #164, #28 ), #115, .T. ) ;
#62 = DIRECTION ( 'NONE',  ( 2.565498867538176215E-30, 1.000000000000000000, 7.347880794884122694E-16 ) ) ;
#63 = PERSON_AND_ORGANIZATION ( #136, #8 ) ;
#64 = PERSON_AND_ORGANIZATION_ROLE ( 'creator' ) ;
#65 =( LENGTH_UNIT ( ) NAMED_UNIT ( * ) SI_UNIT ( .MILLI., .METRE. ) );
#66 = APPROVAL ( #162, 'UNSPECIFIED' ) ;
#67 = PERSON_AND_ORGANIZATION_ROLE ( 'classification_officer' ) ;
#68 = AXIS2_PLACEMENT_3D ( 'NONE', #156, #150, #111 ) ;
#69 = ORIENTED_EDGE ( 'NONE', *, *, #9, .F. ) ;
#70 = PLANE ( 'NONE',  #105 ) ;
#71 = DIRECTION ( 'NONE',  ( 1.000000000000000000, 0.0000000000000000000, 0.0000000000000000000 ) ) ;
#72 = DIRECTION ( 'NONE',  ( -3.491481338843133355E-15, 7.347880794884122694E-16, -1.000000000000000000 ) ) ;
#73 = FACE_OUTER_BOUND ( 'NONE', #96, .T. ) ;
#74 = AXIS2_PLACEMENT_3D ( 'NONE', #38, #33, #85 ) ;
#75 = CALENDAR_DATE ( 2021, 6, 12 ) ;
#76 = CARTESIAN_POINT ( 'NONE',  ( -1.368455531567204171E-45, 2.500000000000000444, 0.0000000000000000000 ) ) ;
#77 = CALENDAR_DATE ( 2021, 6, 12 ) ;
#78 = AXIS2_PLACEMENT_3D ( 'NONE', #142, #44, #71 ) ;
#79 = ADVANCED_FACE ( 'NONE', ( #140, #14 ), #70, .T. ) ;
#80 = EDGE_LOOP ( 'NONE', ( #59 ) ) ;
#81 = FACE_OUTER_BOUND ( 'NONE', #12, .T. ) ;
#82 = DIRECTION ( 'NONE',  ( 2.565498867538176565E-30, 1.000000000000000000, 7.347880794884122694E-16 ) ) ;
#83 = DIRECTION ( 'NONE',  ( 2.565498867538176565E-30, 1.000000000000000000, 7.347880794884122694E-16 ) ) ;
#84 = EDGE_CURVE ( 'NONE', #169, #169, #40, .T. ) ;
#85 = DIRECTION ( 'NONE',  ( 2.561486826035025086E-30, 1.000000000000000000, 7.372574772901434096E-16 ) ) ;
#86 = DATE_TIME_ROLE ( 'creation_date' ) ;
#87 = APPROVAL_ROLE ( '' ) ;
#88 = PRODUCT_DEFINITION ( 'UNKNOWN', '', #6, #13 ) ;
#89 = PERSON_AND_ORGANIZATION ( #136, #8 ) ;
#90 = ORIENTED_EDGE ( 'NONE', *, *, #84, .T. ) ;
#91 = CYLINDRICAL_SURFACE ( 'NONE', #139, 2.500000000000003109 ) ;
#92 = CC_DESIGN_PERSON_AND_ORGANIZATION_ASSIGNMENT ( #168, #93, ( #6 ) ) ;
#93 = PERSON_AND_ORGANIZATION_ROLE ( 'creator' ) ;
#94 = EDGE_LOOP ( 'NONE', ( #95 ) ) ;
#95 = ORIENTED_EDGE ( 'NONE', *, *, #9, .T. ) ;
#96 = EDGE_LOOP ( 'NONE', ( #90 ) ) ;
#97 = EDGE_CURVE ( 'NONE', #103, #103, #24, .T. ) ;
#98 = PRODUCT ( '34590', '34590', '', ( #157 ) ) ;
#99 = APPLICATION_CONTEXT ( 'configuration controlled 3d designs of mechanical parts and assemblies' ) ;
#100 = LOCAL_TIME ( 13, 58, 59.00000000000000000, #104 ) ;
#101 = PERSON_AND_ORGANIZATION ( #136, #8 ) ;
#102 =( NAMED_UNIT ( * ) SI_UNIT ( $, .STERADIAN. ) SOLID_ANGLE_UNIT ( ) );
#103 = VERTEX_POINT ( 'NONE', #76 ) ;
#104 = COORDINATED_UNIVERSAL_TIME_OFFSET ( 1, 0, .AHEAD. ) ;
#105 = AXIS2_PLACEMENT_3D ( 'NONE', #141, #126, #158 ) ;
#106 = COORDINATED_UNIVERSAL_TIME_OFFSET ( 1, 0, .AHEAD. ) ;
#107 = DATE_AND_TIME ( #77, #127 ) ;
#108 = SECURITY_CLASSIFICATION_LEVEL ( 'unclassified' ) ;
#109 = APPLICATION_CONTEXT ( 'configuration controlled 3d designs of mechanical parts and assemblies' ) ;
#110 = SECURITY_CLASSIFICATION ( '', '', #108 ) ;
#111 = DIRECTION ( 'NONE',  ( 2.542227526591145020E-30, 1.000000000000000000, 7.372574772901411416E-16 ) ) ;
#112 = ORIENTED_EDGE ( 'NONE', *, *, #151, .F. ) ;
#113 = DIRECTION ( 'NONE',  ( -3.491481338843133355E-15, 7.347880794884122694E-16, -1.000000000000000000 ) ) ;
#114 = CC_DESIGN_SECURITY_CLASSIFICATION ( #110, ( #6 ) ) ;
#115 = CYLINDRICAL_SURFACE ( 'NONE', #159, 9.999999999999994671 ) ;
#116 = FACE_BOUND ( 'NONE', #7, .T. ) ;
#117 = CC_DESIGN_PERSON_AND_ORGANIZATION_ASSIGNMENT ( #63, #52, ( #6 ) ) ;
#118 = APPLICATION_PROTOCOL_DEFINITION ( 'international standard', 'config_control_design', 1994, #109 ) ;
#119 = CARTESIAN_POINT ( 'NONE',  ( 1.047444401652939218E-15, 2.500000000000005773, 0.2999999999999998224 ) ) ;
#120 = COORDINATED_UNIVERSAL_TIME_OFFSET ( 1, 0, .AHEAD. ) ;
#121 = CALENDAR_DATE ( 2021, 6, 12 ) ;
#122 = CC_DESIGN_APPROVAL ( #135, ( #88 ) ) ;
#123 = CC_DESIGN_DATE_AND_TIME_ASSIGNMENT ( #21, #50, ( #110 ) ) ;
#124 = ORIENTED_EDGE ( 'NONE', *, *, #97, .T. ) ;
#125 = ADVANCED_FACE ( 'NONE', ( #73, #116 ), #18, .T. ) ;
#126 = DIRECTION ( 'NONE',  ( 3.491481338843133355E-15, -7.347880794884122694E-16, 1.000000000000000000 ) ) ;
#127 = LOCAL_TIME ( 13, 58, 59.00000000000000000, #148 ) ;
#128 = ORIENTED_EDGE ( 'NONE', *, *, #151, .T. ) ;
#129 = CC_DESIGN_PERSON_AND_ORGANIZATION_ASSIGNMENT ( #147, #64, ( #88 ) ) ;
#130 = MANIFOLD_SOLID_BREP ( 'Corps-Déplacer/Copier1', #5 ) ;
#131 = CC_DESIGN_DATE_AND_TIME_ASSIGNMENT ( #137, #86, ( #88 ) ) ;
#132 = DIRECTION ( 'NONE',  ( -3.491481338843133355E-15, 7.347880794884122694E-16, -1.000000000000000000 ) ) ;
#133 = CALENDAR_DATE ( 2021, 6, 12 ) ;
#134 = LOCAL_TIME ( 13, 58, 59.00000000000000000, #163 ) ;
#135 = APPROVAL ( #154, 'UNSPECIFIED' ) ;
#136 = PERSON ( 'UNSPECIFIED', 'UNSPECIFIED', 'UNSPECIFIED', ('UNSPECIFIED'), ('UNSPECIFIED'), ('UNSPECIFIED') ) ;
#137 = DATE_AND_TIME ( #133, #134 ) ;
#138 = CARTESIAN_POINT ( 'NONE',  ( 1.047444401652939218E-15, 9.999999999999994671, 0.2999999999999998224 ) ) ;
#139 = AXIS2_PLACEMENT_3D ( 'NONE', #15, #58, #27 ) ;
#140 = FACE_BOUND ( 'NONE', #94, .T. ) ;
#141 = CARTESIAN_POINT ( 'NONE',  ( 1.047444401652929751E-15, 2.500000000000005773, 0.2999999999999970468 ) ) ;
#142 = CARTESIAN_POINT ( 'NONE',  ( 0.0000000000000000000, 0.0000000000000000000, 0.0000000000000000000 ) ) ;
#143 = CARTESIAN_POINT ( 'NONE',  ( -6.413747168845443690E-30, 1.349783804395673555E-30, -1.836970198721031167E-15 ) ) ;
#144 = APPROVAL ( #22, 'UNSPECIFIED' ) ;
#145 = AXIS2_PLACEMENT_3D ( 'NONE', #143, #113, #165 ) ;
#146 = APPROVAL_DATE_TIME ( #43, #144 ) ;
#147 = PERSON_AND_ORGANIZATION ( #136, #8 ) ;
#148 = COORDINATED_UNIVERSAL_TIME_OFFSET ( 1, 0, .AHEAD. ) ;
#149 = APPROVAL_PERSON_ORGANIZATION ( #89, #144, #48 ) ;
#150 = DIRECTION ( 'NONE',  ( -3.491481338843133355E-15, 7.347880794884122694E-16, -1.000000000000000000 ) ) ;
#151 = EDGE_CURVE ( 'NONE', #35, #35, #51, .T. ) ;
#152 = EDGE_LOOP ( 'NONE', ( #112 ) ) ;
#153 = CIRCLE ( 'NONE', #68, 2.500000000000006217 ) ;
#154 = APPROVAL_STATUS ( 'not_yet_approved' ) ;
#155 = APPROVAL_PERSON_ORGANIZATION ( #101, #66, #87 ) ;
#156 = CARTESIAN_POINT ( 'NONE',  ( 1.047444401652932907E-15, -2.204364238465222017E-16, 0.2999999999999979905 ) ) ;
#157 = MECHANICAL_CONTEXT ( 'NONE', #99, 'mechanical' ) ;
#158 = DIRECTION ( 'NONE',  ( -2.565498867538176215E-30, -1.000000000000000000, -7.347880794884122694E-16 ) ) ;
#159 = AXIS2_PLACEMENT_3D ( 'NONE', #4, #46, #82 ) ;
#160 = CC_DESIGN_APPROVAL ( #66, ( #110 ) ) ;
#161 = PERSON_AND_ORGANIZATION ( #136, #8 ) ;
#162 = APPROVAL_STATUS ( 'not_yet_approved' ) ;
#163 = COORDINATED_UNIVERSAL_TIME_OFFSET ( 1, 0, .AHEAD. ) ;
#164 = FACE_OUTER_BOUND ( 'NONE', #55, .T. ) ;
#165 = DIRECTION ( 'NONE',  ( 2.565498867538176565E-30, 1.000000000000000000, 7.347880794884123680E-16 ) ) ;
#166 = ADVANCED_BREP_SHAPE_REPRESENTATION ( '34590', ( #130, #78 ), #29 ) ;
#167 = PERSON_AND_ORGANIZATION_ROLE ( 'design_owner' ) ;
#168 = PERSON_AND_ORGANIZATION ( #136, #8 ) ;
#169 = VERTEX_POINT ( 'NONE', #49 ) ;
ENDSEC;
END-ISO-10303-21;
