ISO-10303-21;
HEADER;
FILE_DESCRIPTION (( 'STEP AP203' ),
    '1' );
FILE_NAME ('34553.step',
    '2021-10-15T13:34:41',
    ( '' ),
    ( '' ),
    'SwSTEP 2.0',
    'SolidWorks 2019',
    '' );
FILE_SCHEMA (( 'CONFIG_CONTROL_DESIGN' ));
ENDSEC;

DATA;
#1 = CARTESIAN_POINT ( 'NONE',  ( 3.491481338843133355E-14, -1.224646799147353256E-15, 10.00000000000000000 ) ) ;
#2 = CC_DESIGN_APPROVAL ( #166, ( #68 ) ) ;
#3 = APPROVAL_DATE_TIME ( #170, #166 ) ;
#4 = COORDINATED_UNIVERSAL_TIME_OFFSET ( 1, 0, .AHEAD. ) ;
#5 = PERSON_AND_ORGANIZATION ( #70, #123 ) ;
#6 = APPLICATION_PROTOCOL_DEFINITION ( 'international standard', 'config_control_design', 1994, #134 ) ;
#7 = ADVANCED_FACE ( 'NONE', ( #199 ), #197, .F. ) ;
#8 = PERSON_AND_ORGANIZATION ( #70, #123 ) ;
#9 = APPROVAL_ROLE ( '' ) ;
#10 = EDGE_LOOP ( 'NONE', ( #200 ) ) ;
#11 = ADVANCED_FACE ( 'NONE', ( #61 ), #143, .T. ) ;
#12 = ORIENTED_EDGE ( 'NONE', *, *, #120, .T. ) ;
#13 = EDGE_LOOP ( 'NONE', ( #12 ) ) ;
#14 = APPLICATION_CONTEXT ( 'configuration controlled 3d designs of mechanical parts and assemblies' ) ;
#15 = DIRECTION ( 'NONE',  ( 0.0000000000000000000, 1.000000000000000000, 0.0000000000000000000 ) ) ;
#16 = PLANE ( 'NONE',  #88 ) ;
#17 = CC_DESIGN_SECURITY_CLASSIFICATION ( #68, ( #84 ) ) ;
#18 = FACE_OUTER_BOUND ( 'NONE', #147, .T. ) ;
#19 = COORDINATED_UNIVERSAL_TIME_OFFSET ( 1, 0, .AHEAD. ) ;
#20 = APPROVAL_STATUS ( 'not_yet_approved' ) ;
#21 = PERSON_AND_ORGANIZATION_ROLE ( 'classification_officer' ) ;
#22 = DATE_TIME_ROLE ( 'creation_date' ) ;
#23 = CARTESIAN_POINT ( 'NONE',  ( 3.491481338843133355E-14, 0.6249999999999932276, 10.00000000000000000 ) ) ;
#24 = EDGE_LOOP ( 'NONE', ( #106 ) ) ;
#25 = ADVANCED_FACE ( 'NONE', ( #202 ), #49, .T. ) ;
#26 = PRODUCT ( '34553', '34553', '', ( #158 ) ) ;
#27 = CARTESIAN_POINT ( 'NONE',  ( 7.942470505217573131E-16, -2.785843639868862262E-17, 0.2274813964163769353 ) ) ;
#28 = DIRECTION ( 'NONE',  ( 0.0000000000000000000, 1.000000000000000000, 0.0000000000000000000 ) ) ;
#29 = DIRECTION ( 'NONE',  ( 0.0000000000000000000, 1.000000000000000000, 0.0000000000000000000 ) ) ;
#30 = AXIS2_PLACEMENT_3D ( 'NONE', #110, #117, #82 ) ;
#31 = VERTEX_POINT ( 'NONE', #72 ) ;
#32 = APPROVAL_DATE_TIME ( #45, #138 ) ;
#33 = CC_DESIGN_PERSON_AND_ORGANIZATION_ASSIGNMENT ( #104, #178, ( #84 ) ) ;
#34 = DESIGN_CONTEXT ( 'detailed design', #134, 'design' ) ;
#35 = CC_DESIGN_DATE_AND_TIME_ASSIGNMENT ( #97, #65, ( #68 ) ) ;
#36 = EDGE_LOOP ( 'NONE', ( #183 ) ) ;
#37 = FACE_OUTER_BOUND ( 'NONE', #182, .T. ) ;
#38 = DIRECTION ( 'NONE',  ( 0.0000000000000000000, 1.000000000000000000, 0.0000000000000000000 ) ) ;
#39 = CIRCLE ( 'NONE', #149, 0.6249999999999968914 ) ;
#40 = VERTEX_POINT ( 'NONE', #23 ) ;
#41 = MANIFOLD_SOLID_BREP ( 'Corps-Déplacer/Copier1[1]', #83 ) ;
#42 = DATE_AND_TIME ( #174, #161 ) ;
#43 = MANIFOLD_SOLID_BREP ( 'Corps-Déplacer/Copier1[2]', #57 ) ;
#44 = CONICAL_SURFACE ( 'NONE', #179, 0.4249999999999967693, 0.7853981633974602694 ) ;
#45 = DATE_AND_TIME ( #124, #159 ) ;
#46 = ADVANCED_FACE ( 'NONE', ( #96 ), #16, .F. ) ;
#47 = DIRECTION ( 'NONE',  ( -4.275831445896958607E-31, -1.000000000000000000, -1.224646799147353207E-16 ) ) ;
#48 = ORIENTED_EDGE ( 'NONE', *, *, #189, .T. ) ;
#49 = PLANE ( 'NONE',  #30 ) ;
#50 = AXIS2_PLACEMENT_3D ( 'NONE', #27, #77, #128 ) ;
#51 = AXIS2_PLACEMENT_3D ( 'NONE', #148, #62, #203 ) ;
#52 = CYLINDRICAL_SURFACE ( 'NONE', #58, 0.6249999999999937828 ) ;
#53 = CARTESIAN_POINT ( 'NONE',  ( 0.0000000000000000000, 0.0000000000000000000, 0.0000000000000000000 ) ) ;
#54 = COORDINATED_UNIVERSAL_TIME_OFFSET ( 1, 0, .AHEAD. ) ;
#55 = DIRECTION ( 'NONE',  ( 1.000000000000000000, 0.0000000000000000000, 0.0000000000000000000 ) ) ;
#56 = COORDINATED_UNIVERSAL_TIME_OFFSET ( 1, 0, .AHEAD. ) ;
#57 = CLOSED_SHELL ( 'NONE', ( #11, #130, #25 ) ) ;
#58 = AXIS2_PLACEMENT_3D ( 'NONE', #53, #135, #131 ) ;
#59 = APPROVAL_ROLE ( '' ) ;
#60 = EDGE_LOOP ( 'NONE', ( #145 ) ) ;
#61 = FACE_OUTER_BOUND ( 'NONE', #127, .T. ) ;
#62 = DIRECTION ( 'NONE',  ( -3.491481338843133355E-15, 1.224646799147353207E-16, -1.000000000000000000 ) ) ;
#63 = EDGE_CURVE ( 'NONE', #111, #111, #142, .T. ) ;
#64 = CC_DESIGN_APPROVAL ( #138, ( #84 ) ) ;
#65 = DATE_TIME_ROLE ( 'classification_date' ) ;
#66 = DIRECTION ( 'NONE',  ( -3.491481338843133355E-15, 1.224646799147353207E-16, -1.000000000000000000 ) ) ;
#67 = CC_DESIGN_PERSON_AND_ORGANIZATION_ASSIGNMENT ( #155, #21, ( #68 ) ) ;
#68 = SECURITY_CLASSIFICATION ( '', '', #153 ) ;
#69 = FACE_BOUND ( 'NONE', #24, .T. ) ;
#70 = PERSON ( 'UNSPECIFIED', 'UNSPECIFIED', 'UNSPECIFIED', ('UNSPECIFIED'), ('UNSPECIFIED'), ('UNSPECIFIED') ) ;
#71 = CALENDAR_DATE ( 2021, 15, 10 ) ;
#72 = CARTESIAN_POINT ( 'NONE',  ( 1.040461438975253866E-13, 0.6249999999999932276, 29.80000000000000426 ) ) ;
#73 =( LENGTH_UNIT ( ) NAMED_UNIT ( * ) SI_UNIT ( .MILLI., .METRE. ) );
#74 = CIRCLE ( 'NONE', #51, 0.6249999999999932276 ) ;
#75 = LOCAL_TIME ( 15, 34, 41.00000000000000000, #19 ) ;
#76 = ORIENTED_EDGE ( 'NONE', *, *, #120, .F. ) ;
#77 = DIRECTION ( 'NONE',  ( 3.491481338843133355E-15, -1.224646799147353207E-16, 1.000000000000000000 ) ) ;
#78 = FACE_OUTER_BOUND ( 'NONE', #10, .T. ) ;
#79 = CC_DESIGN_PERSON_AND_ORGANIZATION_ASSIGNMENT ( #8, #99, ( #26 ) ) ;
#80 = DIRECTION ( 'NONE',  ( 4.275831445896958607E-31, 1.000000000000000000, 1.224646799147353207E-16 ) ) ;
#81 = APPROVAL_ROLE ( '' ) ;
#82 = DIRECTION ( 'NONE',  ( -4.275831445896958607E-31, -1.000000000000000000, -1.224646799147353207E-16 ) ) ;
#83 = CLOSED_SHELL ( 'NONE', ( #7, #172, #108, #46 ) ) ;
#84 = PRODUCT_DEFINITION_FORMATION_WITH_SPECIFIED_SOURCE ( 'ANY', '', #26, .NOT_KNOWN. ) ;
#85 = PERSON_AND_ORGANIZATION_ROLE ( 'design_supplier' ) ;
#86 = PERSON_AND_ORGANIZATION ( #70, #123 ) ;
#87 = CARTESIAN_POINT ( 'NONE',  ( 7.942470505217576089E-16, 0.6249999999999932276, 0.2274813964163770186 ) ) ;
#88 = AXIS2_PLACEMENT_3D ( 'NONE', #114, #190, #167 ) ;
#89 = ORIENTED_EDGE ( 'NONE', *, *, #189, .F. ) ;
#90 = EDGE_LOOP ( 'NONE', ( #89 ) ) ;
#91 = CARTESIAN_POINT ( 'NONE',  ( 1.047444401652940007E-13, -3.673940397442059178E-15, 30.00000000000000000 ) ) ;
#92 = CALENDAR_DATE ( 2021, 15, 10 ) ;
#93 = CARTESIAN_POINT ( 'NONE',  ( 1.040461438975253866E-13, -3.649447461459112464E-15, 29.80000000000000426 ) ) ;
#94 = LOCAL_TIME ( 15, 34, 41.00000000000000000, #56 ) ;
#95 = DIRECTION ( 'NONE',  ( -3.491481338843133355E-15, 1.224646799147353207E-16, -1.000000000000000000 ) ) ;
#96 = FACE_OUTER_BOUND ( 'NONE', #125, .T. ) ;
#97 = DATE_AND_TIME ( #71, #75 ) ;
#98 = DIRECTION ( 'NONE',  ( -3.491481338843133355E-15, 1.224646799147353207E-16, -1.000000000000000000 ) ) ;
#99 = PERSON_AND_ORGANIZATION_ROLE ( 'design_owner' ) ;
#100 = CC_DESIGN_PERSON_AND_ORGANIZATION_ASSIGNMENT ( #86, #85, ( #84 ) ) ;
#101 = UNCERTAINTY_MEASURE_WITH_UNIT (LENGTH_MEASURE( 1.000000000000000082E-05 ), #73, 'distance_accuracy_value', 'NONE');
#102 = AXIS2_PLACEMENT_3D ( 'NONE', #91, #165, #116 ) ;
#103 = APPLICATION_PROTOCOL_DEFINITION ( 'international standard', 'config_control_design', 1994, #14 ) ;
#104 = PERSON_AND_ORGANIZATION ( #70, #123 ) ;
#105 = AXIS2_PLACEMENT_3D ( 'NONE', #192, #132, #15 ) ;
#106 = ORIENTED_EDGE ( 'NONE', *, *, #63, .T. ) ;
#107 = DIRECTION ( 'NONE',  ( 3.491481338843133355E-15, -1.224646799147353207E-16, 1.000000000000000000 ) ) ;
#108 = ADVANCED_FACE ( 'NONE', ( #18, #69 ), #44, .T. ) ;
#109 = CIRCLE ( 'NONE', #188, 0.6249999999999943379 ) ;
#110 = CARTESIAN_POINT ( 'NONE',  ( 3.491481338843133355E-14, 4.686749320818243444E-33, 10.00000000000000000 ) ) ;
#111 = VERTEX_POINT ( 'NONE', #186 ) ;
#112 = COORDINATED_UNIVERSAL_TIME_OFFSET ( 1, 0, .AHEAD. ) ;
#113 = CC_DESIGN_PERSON_AND_ORGANIZATION_ASSIGNMENT ( #176, #141, ( #156 ) ) ;
#114 = CARTESIAN_POINT ( 'NONE',  ( 1.047444401652940007E-13, 3.186989538156368046E-33, 30.00000000000000000 ) ) ;
#115 = SHAPE_DEFINITION_REPRESENTATION ( #201, #162 ) ;
#116 = DIRECTION ( 'NONE',  ( 0.0000000000000000000, 1.000000000000000000, 0.0000000000000000000 ) ) ;
#117 = DIRECTION ( 'NONE',  ( 3.491481338843133355E-15, -1.224646799147353207E-16, 1.000000000000000000 ) ) ;
#118 = CARTESIAN_POINT ( 'NONE',  ( 3.491481338843133355E-14, 0.6249999999999932276, 10.00000000000000000 ) ) ;
#119 = VERTEX_POINT ( 'NONE', #87 ) ;
#120 = EDGE_CURVE ( 'NONE', #31, #31, #39, .T. ) ;
#121 = CALENDAR_DATE ( 2021, 15, 10 ) ;
#122 = DIRECTION ( 'NONE',  ( 0.0000000000000000000, 0.0000000000000000000, 1.000000000000000000 ) ) ;
#123 = ORGANIZATION ( 'UNSPECIFIED', 'UNSPECIFIED', '' ) ;
#124 = CALENDAR_DATE ( 2021, 15, 10 ) ;
#125 = EDGE_LOOP ( 'NONE', ( #160 ) ) ;
#126 = APPROVAL_PERSON_ORGANIZATION ( #195, #138, #9 ) ;
#127 = EDGE_LOOP ( 'NONE', ( #181 ) ) ;
#128 = DIRECTION ( 'NONE',  ( -4.622231866529415969E-31, -1.000000000000000000, -1.301042606982619372E-16 ) ) ;
#129 =( GEOMETRIC_REPRESENTATION_CONTEXT ( 3 ) GLOBAL_UNCERTAINTY_ASSIGNED_CONTEXT ( ( #101 ) ) GLOBAL_UNIT_ASSIGNED_CONTEXT ( ( #73, #140, #139 ) ) REPRESENTATION_CONTEXT ( 'NONE', 'WORKASPACE' ) );
#130 = ADVANCED_FACE ( 'NONE', ( #151, #37 ), #52, .T. ) ;
#131 = DIRECTION ( 'NONE',  ( 4.275831445896958607E-31, 1.000000000000000000, 1.224646799147353207E-16 ) ) ;
#132 = DIRECTION ( 'NONE',  ( -3.491481338843133355E-15, 1.224646799147353207E-16, -1.000000000000000000 ) ) ;
#133 = CC_DESIGN_APPROVAL ( #177, ( #156 ) ) ;
#134 = APPLICATION_CONTEXT ( 'configuration controlled 3d designs of mechanical parts and assemblies' ) ;
#135 = DIRECTION ( 'NONE',  ( -3.491481338843133355E-15, 1.224646799147353207E-16, -1.000000000000000000 ) ) ;
#136 = PERSON_AND_ORGANIZATION ( #70, #123 ) ;
#137 = LOCAL_TIME ( 15, 34, 41.00000000000000000, #112 ) ;
#138 = APPROVAL ( #20, 'UNSPECIFIED' ) ;
#139 =( NAMED_UNIT ( * ) SI_UNIT ( $, .STERADIAN. ) SOLID_ANGLE_UNIT ( ) );
#140 =( NAMED_UNIT ( * ) PLANE_ANGLE_UNIT ( ) SI_UNIT ( $, .RADIAN. ) );
#141 = PERSON_AND_ORGANIZATION_ROLE ( 'creator' ) ;
#142 = CIRCLE ( 'NONE', #102, 0.4249999999999967693 ) ;
#143 = CONICAL_SURFACE ( 'NONE', #50, 0.6249999999999932276, 1.221730476396026610 ) ;
#144 = CIRCLE ( 'NONE', #105, 0.6249999999999943379 ) ;
#145 = ORIENTED_EDGE ( 'NONE', *, *, #198, .F. ) ;
#146 = CARTESIAN_POINT ( 'NONE',  ( 3.491481338843133355E-14, 4.686749320818243444E-33, 10.00000000000000000 ) ) ;
#147 = EDGE_LOOP ( 'NONE', ( #76 ) ) ;
#148 = CARTESIAN_POINT ( 'NONE',  ( 7.942470505217573131E-16, -2.785843639868862262E-17, 0.2274813964163769353 ) ) ;
#149 = AXIS2_PLACEMENT_3D ( 'NONE', #93, #164, #28 ) ;
#150 = CARTESIAN_POINT ( 'NONE',  ( 1.047444401652940007E-13, -3.673940397442059178E-15, 30.00000000000000000 ) ) ;
#151 = FACE_OUTER_BOUND ( 'NONE', #60, .T. ) ;
#152 = AXIS2_PLACEMENT_3D ( 'NONE', #173, #122, #55 ) ;
#153 = SECURITY_CLASSIFICATION_LEVEL ( 'unclassified' ) ;
#154 = APPROVAL_STATUS ( 'not_yet_approved' ) ;
#155 = PERSON_AND_ORGANIZATION ( #70, #123 ) ;
#156 = PRODUCT_DEFINITION ( 'UNKNOWN', '', #84, #34 ) ;
#157 = VERTEX_POINT ( 'NONE', #118 ) ;
#158 = MECHANICAL_CONTEXT ( 'NONE', #14, 'mechanical' ) ;
#159 = LOCAL_TIME ( 15, 34, 41.00000000000000000, #54 ) ;
#160 = ORIENTED_EDGE ( 'NONE', *, *, #63, .F. ) ;
#161 = LOCAL_TIME ( 15, 34, 41.00000000000000000, #4 ) ;
#162 = ADVANCED_BREP_SHAPE_REPRESENTATION ( '34553', ( #41, #43, #152 ), #129 ) ;
#163 = CYLINDRICAL_SURFACE ( 'NONE', #185, 0.6249999999999955591 ) ;
#164 = DIRECTION ( 'NONE',  ( -3.491481338843133355E-15, 1.224646799147353207E-16, -1.000000000000000000 ) ) ;
#165 = DIRECTION ( 'NONE',  ( -3.491481338843133355E-15, 1.224646799147353207E-16, -1.000000000000000000 ) ) ;
#166 = APPROVAL ( #187, 'UNSPECIFIED' ) ;
#167 = DIRECTION ( 'NONE',  ( 4.275831445896958607E-31, 1.000000000000000000, 1.224646799147353207E-16 ) ) ;
#168 = PRODUCT_RELATED_PRODUCT_CATEGORY ( 'detail', '', ( #26 ) ) ;
#169 = FACE_OUTER_BOUND ( 'NONE', #13, .T. ) ;
#170 = DATE_AND_TIME ( #92, #137 ) ;
#171 = APPROVAL_DATE_TIME ( #196, #177 ) ;
#172 = ADVANCED_FACE ( 'NONE', ( #78, #169 ), #163, .T. ) ;
#173 = CARTESIAN_POINT ( 'NONE',  ( 0.0000000000000000000, 0.0000000000000000000, 0.0000000000000000000 ) ) ;
#174 = CALENDAR_DATE ( 2021, 15, 10 ) ;
#175 = APPROVAL_PERSON_ORGANIZATION ( #136, #177, #59 ) ;
#176 = PERSON_AND_ORGANIZATION ( #70, #123 ) ;
#177 = APPROVAL ( #154, 'UNSPECIFIED' ) ;
#178 = PERSON_AND_ORGANIZATION_ROLE ( 'creator' ) ;
#179 = AXIS2_PLACEMENT_3D ( 'NONE', #150, #66, #29 ) ;
#180 = CC_DESIGN_DATE_AND_TIME_ASSIGNMENT ( #42, #22, ( #156 ) ) ;
#181 = ORIENTED_EDGE ( 'NONE', *, *, #198, .T. ) ;
#182 = EDGE_LOOP ( 'NONE', ( #48 ) ) ;
#183 = ORIENTED_EDGE ( 'NONE', *, *, #194, .T. ) ;
#184 = AXIS2_PLACEMENT_3D ( 'NONE', #146, #107, #47 ) ;
#185 = AXIS2_PLACEMENT_3D ( 'NONE', #191, #98, #80 ) ;
#186 = CARTESIAN_POINT ( 'NONE',  ( 1.047444401652940007E-13, 0.4249999999999931055, 30.00000000000000000 ) ) ;
#187 = APPROVAL_STATUS ( 'not_yet_approved' ) ;
#188 = AXIS2_PLACEMENT_3D ( 'NONE', #1, #95, #38 ) ;
#189 = EDGE_CURVE ( 'NONE', #157, #157, #144, .T. ) ;
#190 = DIRECTION ( 'NONE',  ( -3.491481338843133355E-15, 1.224646799147353207E-16, -1.000000000000000000 ) ) ;
#191 = CARTESIAN_POINT ( 'NONE',  ( 0.0000000000000000000, 0.0000000000000000000, 0.0000000000000000000 ) ) ;
#192 = CARTESIAN_POINT ( 'NONE',  ( 3.491481338843133355E-14, -1.224646799147353256E-15, 10.00000000000000000 ) ) ;
#193 = APPROVAL_PERSON_ORGANIZATION ( #5, #166, #81 ) ;
#194 = EDGE_CURVE ( 'NONE', #40, #40, #109, .T. ) ;
#195 = PERSON_AND_ORGANIZATION ( #70, #123 ) ;
#196 = DATE_AND_TIME ( #121, #94 ) ;
#197 = PLANE ( 'NONE',  #184 ) ;
#198 = EDGE_CURVE ( 'NONE', #119, #119, #74, .T. ) ;
#199 = FACE_OUTER_BOUND ( 'NONE', #36, .T. ) ;
#200 = ORIENTED_EDGE ( 'NONE', *, *, #194, .F. ) ;
#201 = PRODUCT_DEFINITION_SHAPE ( 'NONE', 'NONE',  #156 ) ;
#202 = FACE_OUTER_BOUND ( 'NONE', #90, .T. ) ;
#203 = DIRECTION ( 'NONE',  ( 4.622231866529415969E-31, 1.000000000000000000, 1.301042606982619372E-16 ) ) ;
ENDSEC;
END-ISO-10303-21;
