ISO-10303-21;
HEADER;
FILE_DESCRIPTION (( 'STEP AP203' ),
    '1' );
FILE_NAME ('34523.step',
    '2021-12-06T12:58:59',
    ( '' ),
    ( '' ),
    'SwSTEP 2.0',
    'SolidWorks 2019',
    '' );
FILE_SCHEMA (( 'CONFIG_CONTROL_DESIGN' ));
ENDSEC;

DATA;
#1 = FACE_OUTER_BOUND ( 'NONE', #158, .T. ) ;
#2 = EDGE_CURVE ( 'NONE', #104, #104, #145, .T. ) ;
#3 = CARTESIAN_POINT ( 'NONE',  ( 0.0000000000000000000, 80.00000000000000000, 0.0000000000000000000 ) ) ;
#4 = CLOSED_SHELL ( 'NONE', ( #38, #96, #113, #130 ) ) ;
#5 = DIRECTION ( 'NONE',  ( -3.491481338843133355E-15, 1.836970198721029688E-16, -1.000000000000000000 ) ) ;
#6 = VERTEX_POINT ( 'NONE', #25 ) ;
#7 = CALENDAR_DATE ( 2021, 6, 12 ) ;
#8 = CARTESIAN_POINT ( 'NONE',  ( 4.189777606611707962E-15, -2.204364238465208459E-16, 1.199999999999985079 ) ) ;
#9 = COORDINATED_UNIVERSAL_TIME_OFFSET ( 1, 0, .AHEAD. ) ;
#10 = PERSON_AND_ORGANIZATION_ROLE ( 'design_owner' ) ;
#11 = PRODUCT_DEFINITION ( 'UNKNOWN', '', #97, #143 ) ;
#12 = ORIENTED_EDGE ( 'NONE', *, *, #91, .F. ) ;
#13 = MANIFOLD_SOLID_BREP ( 'Corps-Déplacer/Copier1', #4 ) ;
#14 = CARTESIAN_POINT ( 'NONE',  ( -5.130997735076350468E-29, 2.699567608791343256E-30, -1.469576158976823671E-14 ) ) ;
#15 = EDGE_LOOP ( 'NONE', ( #169 ) ) ;
#16 = FACE_OUTER_BOUND ( 'NONE', #34, .T. ) ;
#17 = DIRECTION ( 'NONE',  ( -3.491481338843133355E-15, 1.836970198721029688E-16, -1.000000000000000000 ) ) ;
#18 = PERSON_AND_ORGANIZATION ( #61, #36 ) ;
#19 = PERSON_AND_ORGANIZATION_ROLE ( 'classification_officer' ) ;
#20 = PERSON_AND_ORGANIZATION ( #61, #36 ) ;
#21 = CC_DESIGN_DATE_AND_TIME_ASSIGNMENT ( #110, #69, ( #11 ) ) ;
#22 = ORIENTED_EDGE ( 'NONE', *, *, #62, .F. ) ;
#23 = AXIS2_PLACEMENT_3D ( 'NONE', #79, #43, #52 ) ;
#24 = DIRECTION ( 'NONE',  ( -3.491481338843133355E-15, 1.836970198721029688E-16, -1.000000000000000000 ) ) ;
#25 = CARTESIAN_POINT ( 'NONE',  ( -1.368455531567204171E-45, 16.00000000000000000, 0.0000000000000000000 ) ) ;
#26 = FACE_OUTER_BOUND ( 'NONE', #76, .T. ) ;
#27 = LOCAL_TIME ( 13, 58, 59.00000000000000000, #149 ) ;
#28 = APPLICATION_PROTOCOL_DEFINITION ( 'international standard', 'config_control_design', 1994, #73 ) ;
#29 = APPROVAL_DATE_TIME ( #80, #74 ) ;
#30 = CARTESIAN_POINT ( 'NONE',  ( 4.189777606611758449E-15, 16.00000000000000355, 1.199999999999999956 ) ) ;
#31 = CC_DESIGN_PERSON_AND_ORGANIZATION_ASSIGNMENT ( #55, #19, ( #120 ) ) ;
#32 = PRODUCT_DEFINITION_SHAPE ( 'NONE', 'NONE',  #11 ) ;
#33 = AXIS2_PLACEMENT_3D ( 'NONE', #135, #123, #106 ) ;
#34 = EDGE_LOOP ( 'NONE', ( #22 ) ) ;
#35 = EDGE_LOOP ( 'NONE', ( #146 ) ) ;
#36 = ORGANIZATION ( 'UNSPECIFIED', 'UNSPECIFIED', '' ) ;
#37 = SHAPE_DEFINITION_REPRESENTATION ( #32, #161 ) ;
#38 = ADVANCED_FACE ( 'NONE', ( #1, #118 ), #48, .T. ) ;
#39 = APPROVAL_DATE_TIME ( #100, #157 ) ;
#40 = CARTESIAN_POINT ( 'NONE',  ( 0.0000000000000000000, 0.0000000000000000000, 0.0000000000000000000 ) ) ;
#41 = PERSON_AND_ORGANIZATION_ROLE ( 'creator' ) ;
#42 = DIRECTION ( 'NONE',  ( 6.413747168845437910E-31, 1.000000000000000000, 1.836970198721029934E-16 ) ) ;
#43 = DIRECTION ( 'NONE',  ( 3.491481338843133355E-15, -1.836970198721029688E-16, 1.000000000000000000 ) ) ;
#44 = CIRCLE ( 'NONE', #66, 16.00000000000000355 ) ;
#45 =( LENGTH_UNIT ( ) NAMED_UNIT ( * ) SI_UNIT ( .MILLI., .METRE. ) );
#46 = LOCAL_TIME ( 13, 58, 59.00000000000000000, #136 ) ;
#47 = ORIENTED_EDGE ( 'NONE', *, *, #2, .F. ) ;
#48 = PLANE ( 'NONE',  #115 ) ;
#49 = CC_DESIGN_DATE_AND_TIME_ASSIGNMENT ( #164, #166, ( #120 ) ) ;
#50 = FACE_OUTER_BOUND ( 'NONE', #65, .T. ) ;
#51 = LOCAL_TIME ( 13, 58, 59.00000000000000000, #9 ) ;
#52 = DIRECTION ( 'NONE',  ( -6.413747168845437034E-31, -1.000000000000000000, -1.836970198721029688E-16 ) ) ;
#53 = DIRECTION ( 'NONE',  ( 0.0000000000000000000, 0.0000000000000000000, 1.000000000000000000 ) ) ;
#54 = DIRECTION ( 'NONE',  ( 6.451865313697240108E-31, 1.000000000000000000, 1.843143693225357538E-16 ) ) ;
#55 = PERSON_AND_ORGANIZATION ( #61, #36 ) ;
#56 = APPLICATION_CONTEXT ( 'configuration controlled 3d designs of mechanical parts and assemblies' ) ;
#57 = CALENDAR_DATE ( 2021, 6, 12 ) ;
#58 = AXIS2_PLACEMENT_3D ( 'NONE', #14, #63, #116 ) ;
#59 = APPROVAL_STATUS ( 'not_yet_approved' ) ;
#60 = DATE_AND_TIME ( #57, #27 ) ;
#61 = PERSON ( 'UNSPECIFIED', 'UNSPECIFIED', 'UNSPECIFIED', ('UNSPECIFIED'), ('UNSPECIFIED'), ('UNSPECIFIED') ) ;
#62 = EDGE_CURVE ( 'NONE', #160, #160, #155, .T. ) ;
#63 = DIRECTION ( 'NONE',  ( -3.491481338843133355E-15, 1.836970198721029688E-16, -1.000000000000000000 ) ) ;
#64 = CC_DESIGN_PERSON_AND_ORGANIZATION_ASSIGNMENT ( #95, #10, ( #114 ) ) ;
#65 = EDGE_LOOP ( 'NONE', ( #12 ) ) ;
#66 = AXIS2_PLACEMENT_3D ( 'NONE', #70, #24, #105 ) ;
#67 = CARTESIAN_POINT ( 'NONE',  ( 0.0000000000000000000, 0.0000000000000000000, 0.0000000000000000000 ) ) ;
#68 = PLANE ( 'NONE',  #23 ) ;
#69 = DATE_TIME_ROLE ( 'creation_date' ) ;
#70 = CARTESIAN_POINT ( 'NONE',  ( 4.189777606611748982E-15, -2.204364238465229659E-16, 1.199999999999996847 ) ) ;
#71 = CALENDAR_DATE ( 2021, 6, 12 ) ;
#72 = APPROVAL_PERSON_ORGANIZATION ( #20, #101, #152 ) ;
#73 = APPLICATION_CONTEXT ( 'configuration controlled 3d designs of mechanical parts and assemblies' ) ;
#74 = APPROVAL ( #78, 'UNSPECIFIED' ) ;
#75 = COORDINATED_UNIVERSAL_TIME_OFFSET ( 1, 0, .AHEAD. ) ;
#76 = EDGE_LOOP ( 'NONE', ( #147 ) ) ;
#77 = DIRECTION ( 'NONE',  ( -3.491481338843133355E-15, 1.836970198721029688E-16, -1.000000000000000000 ) ) ;
#78 = APPROVAL_STATUS ( 'not_yet_approved' ) ;
#79 = CARTESIAN_POINT ( 'NONE',  ( 4.189777606611739516E-15, 16.00000000000000355, 1.199999999999993960 ) ) ;
#80 = DATE_AND_TIME ( #151, #46 ) ;
#81 = PERSON_AND_ORGANIZATION_ROLE ( 'creator' ) ;
#82 = MECHANICAL_CONTEXT ( 'NONE', #73, 'mechanical' ) ;
#83 = CC_DESIGN_APPROVAL ( #157, ( #120 ) ) ;
#84 = CC_DESIGN_PERSON_AND_ORGANIZATION_ASSIGNMENT ( #122, #124, ( #97 ) ) ;
#85 = CC_DESIGN_PERSON_AND_ORGANIZATION_ASSIGNMENT ( #112, #41, ( #11 ) ) ;
#86 = EDGE_LOOP ( 'NONE', ( #47 ) ) ;
#87 = CC_DESIGN_APPROVAL ( #74, ( #97 ) ) ;
#88 = DIRECTION ( 'NONE',  ( 6.413747168845437910E-31, 1.000000000000000000, 1.836970198721029688E-16 ) ) ;
#89 = DIRECTION ( 'NONE',  ( 6.413747168845437034E-31, 1.000000000000000000, 1.836970198721029688E-16 ) ) ;
#90 = APPROVAL_DATE_TIME ( #60, #101 ) ;
#91 = EDGE_CURVE ( 'NONE', #148, #148, #44, .T. ) ;
#92 = FACE_OUTER_BOUND ( 'NONE', #35, .T. ) ;
#93 = DIRECTION ( 'NONE',  ( 1.000000000000000000, 0.0000000000000000000, 0.0000000000000000000 ) ) ;
#94 = PERSON_AND_ORGANIZATION ( #61, #36 ) ;
#95 = PERSON_AND_ORGANIZATION ( #61, #36 ) ;
#96 = ADVANCED_FACE ( 'NONE', ( #26, #137 ), #121, .T. ) ;
#97 = PRODUCT_DEFINITION_FORMATION_WITH_SPECIFIED_SOURCE ( 'ANY', '', #114, .NOT_KNOWN. ) ;
#98 = AXIS2_PLACEMENT_3D ( 'NONE', #40, #77, #88 ) ;
#99 = UNCERTAINTY_MEASURE_WITH_UNIT (LENGTH_MEASURE( 1.000000000000000082E-05 ), #45, 'distance_accuracy_value', 'NONE');
#100 = DATE_AND_TIME ( #7, #159 ) ;
#101 = APPROVAL ( #154, 'UNSPECIFIED' ) ;
#102 = AXIS2_PLACEMENT_3D ( 'NONE', #67, #119, #42 ) ;
#103 = CARTESIAN_POINT ( 'NONE',  ( -2.052399094030540411E-29, 16.00000000000000000, -5.878304635907295789E-15 ) ) ;
#104 = VERTEX_POINT ( 'NONE', #3 ) ;
#105 = DIRECTION ( 'NONE',  ( 6.259272319258514771E-31, 1.000000000000000000, 1.897353801849632266E-16 ) ) ;
#106 = DIRECTION ( 'NONE',  ( 6.413747168845437910E-31, 1.000000000000000000, 1.836970198721029934E-16 ) ) ;
#107 = COORDINATED_UNIVERSAL_TIME_OFFSET ( 1, 0, .AHEAD. ) ;
#108 = EDGE_CURVE ( 'NONE', #6, #6, #109, .T. ) ;
#109 = CIRCLE ( 'NONE', #33, 16.00000000000000000 ) ;
#110 = DATE_AND_TIME ( #138, #51 ) ;
#111 = APPROVAL_ROLE ( '' ) ;
#112 = PERSON_AND_ORGANIZATION ( #61, #36 ) ;
#113 = ADVANCED_FACE ( 'NONE', ( #163, #16 ), #68, .T. ) ;
#114 = PRODUCT ( '34523', '34523', '', ( #82 ) ) ;
#115 = AXIS2_PLACEMENT_3D ( 'NONE', #103, #5, #89 ) ;
#116 = DIRECTION ( 'NONE',  ( 6.413747168845437910E-31, 1.000000000000000000, 1.836970198721029688E-16 ) ) ;
#117 = AXIS2_PLACEMENT_3D ( 'NONE', #8, #17, #54 ) ;
#118 = FACE_BOUND ( 'NONE', #15, .T. ) ;
#119 = DIRECTION ( 'NONE',  ( -3.491481338843133355E-15, 1.836970198721029688E-16, -1.000000000000000000 ) ) ;
#120 = SECURITY_CLASSIFICATION ( '', '', #140 ) ;
#121 = CYLINDRICAL_SURFACE ( 'NONE', #98, 80.00000000000000000 ) ;
#122 = PERSON_AND_ORGANIZATION ( #61, #36 ) ;
#123 = DIRECTION ( 'NONE',  ( -3.491481338843133355E-15, 1.836970198721029688E-16, -1.000000000000000000 ) ) ;
#124 = PERSON_AND_ORGANIZATION_ROLE ( 'design_supplier' ) ;
#125 =( NAMED_UNIT ( * ) SI_UNIT ( $, .STERADIAN. ) SOLID_ANGLE_UNIT ( ) );
#126 = CC_DESIGN_APPROVAL ( #101, ( #11 ) ) ;
#127 = PERSON_AND_ORGANIZATION ( #61, #36 ) ;
#128 = CARTESIAN_POINT ( 'NONE',  ( 0.0000000000000000000, 0.0000000000000000000, 0.0000000000000000000 ) ) ;
#129 = CC_DESIGN_SECURITY_CLASSIFICATION ( #120, ( #97 ) ) ;
#130 = ADVANCED_FACE ( 'NONE', ( #92, #50 ), #162, .F. ) ;
#131 = ORIENTED_EDGE ( 'NONE', *, *, #91, .T. ) ;
#132 = EDGE_LOOP ( 'NONE', ( #131 ) ) ;
#133 = ORIENTED_EDGE ( 'NONE', *, *, #2, .T. ) ;
#134 = AXIS2_PLACEMENT_3D ( 'NONE', #128, #53, #93 ) ;
#135 = CARTESIAN_POINT ( 'NONE',  ( -1.026199547015270206E-29, 5.399135217582687388E-31, -2.939152317953647894E-15 ) ) ;
#136 = COORDINATED_UNIVERSAL_TIME_OFFSET ( 1, 0, .AHEAD. ) ;
#137 = FACE_OUTER_BOUND ( 'NONE', #86, .T. ) ;
#138 = CALENDAR_DATE ( 2021, 6, 12 ) ;
#139 =( NAMED_UNIT ( * ) PLANE_ANGLE_UNIT ( ) SI_UNIT ( $, .RADIAN. ) );
#140 = SECURITY_CLASSIFICATION_LEVEL ( 'unclassified' ) ;
#141 =( GEOMETRIC_REPRESENTATION_CONTEXT ( 3 ) GLOBAL_UNCERTAINTY_ASSIGNED_CONTEXT ( ( #99 ) ) GLOBAL_UNIT_ASSIGNED_CONTEXT ( ( #45, #139, #125 ) ) REPRESENTATION_CONTEXT ( 'NONE', 'WORKASPACE' ) );
#142 = APPLICATION_PROTOCOL_DEFINITION ( 'international standard', 'config_control_design', 1994, #56 ) ;
#143 = DESIGN_CONTEXT ( 'detailed design', #56, 'design' ) ;
#144 = PRODUCT_RELATED_PRODUCT_CATEGORY ( 'detail', '', ( #114 ) ) ;
#145 = CIRCLE ( 'NONE', #58, 80.00000000000000000 ) ;
#146 = ORIENTED_EDGE ( 'NONE', *, *, #108, .T. ) ;
#147 = ORIENTED_EDGE ( 'NONE', *, *, #62, .T. ) ;
#148 = VERTEX_POINT ( 'NONE', #30 ) ;
#149 = COORDINATED_UNIVERSAL_TIME_OFFSET ( 1, 0, .AHEAD. ) ;
#150 = CARTESIAN_POINT ( 'NONE',  ( 4.189777606611759237E-15, 80.00000000000000000, 1.199999999999999956 ) ) ;
#151 = CALENDAR_DATE ( 2021, 6, 12 ) ;
#152 = APPROVAL_ROLE ( '' ) ;
#153 = APPROVAL_ROLE ( '' ) ;
#154 = APPROVAL_STATUS ( 'not_yet_approved' ) ;
#155 = CIRCLE ( 'NONE', #117, 80.00000000000000000 ) ;
#156 = APPROVAL_PERSON_ORGANIZATION ( #94, #74, #153 ) ;
#157 = APPROVAL ( #59, 'UNSPECIFIED' ) ;
#158 = EDGE_LOOP ( 'NONE', ( #133 ) ) ;
#159 = LOCAL_TIME ( 13, 58, 59.00000000000000000, #75 ) ;
#160 = VERTEX_POINT ( 'NONE', #150 ) ;
#161 = ADVANCED_BREP_SHAPE_REPRESENTATION ( '34523', ( #13, #134 ), #141 ) ;
#162 = CYLINDRICAL_SURFACE ( 'NONE', #102, 16.00000000000000000 ) ;
#163 = FACE_BOUND ( 'NONE', #132, .T. ) ;
#164 = DATE_AND_TIME ( #71, #168 ) ;
#165 = APPROVAL_PERSON_ORGANIZATION ( #127, #157, #111 ) ;
#166 = DATE_TIME_ROLE ( 'classification_date' ) ;
#167 = CC_DESIGN_PERSON_AND_ORGANIZATION_ASSIGNMENT ( #18, #81, ( #97 ) ) ;
#168 = LOCAL_TIME ( 13, 58, 59.00000000000000000, #107 ) ;
#169 = ORIENTED_EDGE ( 'NONE', *, *, #108, .F. ) ;
ENDSEC;
END-ISO-10303-21;
