ISO-10303-21;
HEADER;
FILE_DESCRIPTION (( 'STEP AP203' ),
    '1' );
FILE_NAME ('3438.step',
    '2021-12-06T12:58:58',
    ( '' ),
    ( '' ),
    'SwSTEP 2.0',
    'SolidWorks 2019',
    '' );
FILE_SCHEMA (( 'CONFIG_CONTROL_DESIGN' ));
ENDSEC;

DATA;
#1 = APPROVAL ( #46, 'UNSPECIFIED' ) ;
#2 = PERSON_AND_ORGANIZATION ( #115, #90 ) ;
#3 = EDGE_LOOP ( 'NONE', ( #58 ) ) ;
#4 = DATE_TIME_ROLE ( 'classification_date' ) ;
#5 = EDGE_LOOP ( 'NONE', ( #160 ) ) ;
#6 = EDGE_LOOP ( 'NONE', ( #114 ) ) ;
#7 = CC_DESIGN_PERSON_AND_ORGANIZATION_ASSIGNMENT ( #108, #57, ( #131 ) ) ;
#8 = ORIENTED_EDGE ( 'NONE', *, *, #85, .F. ) ;
#9 = DIRECTION ( 'NONE',  ( -3.491481338843133355E-15, 1.377727649040771896E-16, -1.000000000000000000 ) ) ;
#10 = CARTESIAN_POINT ( 'NONE',  ( -5.291341414297483582E-30, 2.087946822424553400E-31, -1.515500413944848839E-15 ) ) ;
#11 = VERTEX_POINT ( 'NONE', #42 ) ;
#12 = CYLINDRICAL_SURFACE ( 'NONE', #67, 50.00000000000000000 ) ;
#13 = CIRCLE ( 'NONE', #134, 11.00000000000000000 ) ;
#14 = APPROVAL_PERSON_ORGANIZATION ( #30, #1, #70 ) ;
#15 = DATE_TIME_ROLE ( 'creation_date' ) ;
#16 = EDGE_CURVE ( 'NONE', #11, #11, #13, .T. ) ;
#17 = PERSON_AND_ORGANIZATION ( #115, #90 ) ;
#18 = CALENDAR_DATE ( 2021, 6, 12 ) ;
#19 = EDGE_LOOP ( 'NONE', ( #141 ) ) ;
#20 = CC_DESIGN_PERSON_AND_ORGANIZATION_ASSIGNMENT ( #17, #152, ( #137 ) ) ;
#21 = COORDINATED_UNIVERSAL_TIME_OFFSET ( 1, 0, .AHEAD. ) ;
#22 = LOCAL_TIME ( 13, 58, 58.00000000000000000, #109 ) ;
#23 = EDGE_LOOP ( 'NONE', ( #60 ) ) ;
#24 = CARTESIAN_POINT ( 'NONE',  ( -9.380105234436449889E-30, 11.00000000000000000, -2.686568915629505074E-15 ) ) ;
#25 = CC_DESIGN_PERSON_AND_ORGANIZATION_ASSIGNMENT ( #47, #68, ( #59 ) ) ;
#26 = DIRECTION ( 'NONE',  ( 4.810310376634075586E-31, 1.000000000000000000, 1.377727649040771649E-16 ) ) ;
#27 = FACE_OUTER_BOUND ( 'NONE', #3, .T. ) ;
#28 = CARTESIAN_POINT ( 'NONE',  ( 5.586370142149009424E-15, -2.204364238465233111E-16, 1.599999999999998757 ) ) ;
#29 = PRODUCT_DEFINITION_SHAPE ( 'NONE', 'NONE',  #59 ) ;
#30 = PERSON_AND_ORGANIZATION ( #115, #90 ) ;
#31 = AXIS2_PLACEMENT_3D ( 'NONE', #38, #81, #78 ) ;
#32 = DIRECTION ( 'NONE',  ( 1.000000000000000000, 0.0000000000000000000, 0.0000000000000000000 ) ) ;
#33 = DATE_AND_TIME ( #149, #35 ) ;
#34 = APPROVAL_DATE_TIME ( #111, #1 ) ;
#35 = LOCAL_TIME ( 13, 58, 58.00000000000000000, #21 ) ;
#36 = CALENDAR_DATE ( 2021, 6, 12 ) ;
#37 = CC_DESIGN_PERSON_AND_ORGANIZATION_ASSIGNMENT ( #167, #87, ( #131 ) ) ;
#38 = CARTESIAN_POINT ( 'NONE',  ( -2.405155188317038476E-29, 9.490667374657060990E-31, -6.888638245203859972E-15 ) ) ;
#39 = EDGE_CURVE ( 'NONE', #52, #52, #139, .T. ) ;
#40 = FACE_OUTER_BOUND ( 'NONE', #5, .T. ) ;
#41 = DIRECTION ( 'NONE',  ( -3.491481338843133355E-15, 1.377727649040771896E-16, -1.000000000000000000 ) ) ;
#42 = CARTESIAN_POINT ( 'NONE',  ( 5.586370142149014946E-15, 11.00000000000000000, 1.600000000000000311 ) ) ;
#43 = DESIGN_CONTEXT ( 'detailed design', #73, 'design' ) ;
#44 = DATE_AND_TIME ( #86, #49 ) ;
#45 = ADVANCED_FACE ( 'NONE', ( #144, #155 ), #12, .T. ) ;
#46 = APPROVAL_STATUS ( 'not_yet_approved' ) ;
#47 = PERSON_AND_ORGANIZATION ( #115, #90 ) ;
#48 = CIRCLE ( 'NONE', #154, 11.00000000000000000 ) ;
#49 = LOCAL_TIME ( 13, 58, 58.00000000000000000, #84 ) ;
#50 = ORIENTED_EDGE ( 'NONE', *, *, #39, .F. ) ;
#51 = DIRECTION ( 'NONE',  ( 4.902367131167509524E-31, 1.000000000000000000, 1.379893674072460211E-16 ) ) ;
#52 = VERTEX_POINT ( 'NONE', #106 ) ;
#53 =( NAMED_UNIT ( * ) PLANE_ANGLE_UNIT ( ) SI_UNIT ( $, .RADIAN. ) );
#54 = EDGE_CURVE ( 'NONE', #147, #147, #116, .T. ) ;
#55 = PERSON_AND_ORGANIZATION ( #115, #90 ) ;
#56 = AXIS2_PLACEMENT_3D ( 'NONE', #77, #132, #26 ) ;
#57 = PERSON_AND_ORGANIZATION_ROLE ( 'creator' ) ;
#58 = ORIENTED_EDGE ( 'NONE', *, *, #39, .T. ) ;
#59 = PRODUCT_DEFINITION ( 'UNKNOWN', '', #131, #43 ) ;
#60 = ORIENTED_EDGE ( 'NONE', *, *, #85, .T. ) ;
#61 = APPLICATION_CONTEXT ( 'configuration controlled 3d designs of mechanical parts and assemblies' ) ;
#62 = DIRECTION ( 'NONE',  ( 4.810310376634075586E-31, 1.000000000000000000, 1.377727649040771649E-16 ) ) ;
#63 = LOCAL_TIME ( 13, 58, 58.00000000000000000, #107 ) ;
#64 =( NAMED_UNIT ( * ) SI_UNIT ( $, .STERADIAN. ) SOLID_ANGLE_UNIT ( ) );
#65 = DIRECTION ( 'NONE',  ( -4.810310376634076462E-31, -1.000000000000000000, -1.377727649040771896E-16 ) ) ;
#66 = PLANE ( 'NONE',  #83 ) ;
#67 = AXIS2_PLACEMENT_3D ( 'NONE', #146, #91, #142 ) ;
#68 = PERSON_AND_ORGANIZATION_ROLE ( 'creator' ) ;
#69 = ADVANCED_FACE ( 'NONE', ( #133, #166 ), #164, .F. ) ;
#70 = APPROVAL_ROLE ( '' ) ;
#71 = APPROVAL_ROLE ( '' ) ;
#72 = LOCAL_TIME ( 13, 58, 58.00000000000000000, #169 ) ;
#73 = APPLICATION_CONTEXT ( 'configuration controlled 3d designs of mechanical parts and assemblies' ) ;
#74 = EDGE_LOOP ( 'NONE', ( #8 ) ) ;
#75 = CC_DESIGN_APPROVAL ( #1, ( #59 ) ) ;
#76 = PRODUCT_RELATED_PRODUCT_CATEGORY ( 'detail', '', ( #137 ) ) ;
#77 = CARTESIAN_POINT ( 'NONE',  ( 0.0000000000000000000, 0.0000000000000000000, 0.0000000000000000000 ) ) ;
#78 = DIRECTION ( 'NONE',  ( 4.810310376634076462E-31, 1.000000000000000000, 1.377727649040771896E-16 ) ) ;
#79 = PLANE ( 'NONE',  #168 ) ;
#80 = DIRECTION ( 'NONE',  ( 4.776306262080344916E-31, 1.000000000000000000, 1.387778780781445676E-16 ) ) ;
#81 = DIRECTION ( 'NONE',  ( -3.491481338843133355E-15, 1.377727649040771896E-16, -1.000000000000000000 ) ) ;
#82 = SECURITY_CLASSIFICATION_LEVEL ( 'unclassified' ) ;
#83 = AXIS2_PLACEMENT_3D ( 'NONE', #24, #9, #118 ) ;
#84 = COORDINATED_UNIVERSAL_TIME_OFFSET ( 1, 0, .AHEAD. ) ;
#85 = EDGE_CURVE ( 'NONE', #120, #120, #48, .T. ) ;
#86 = CALENDAR_DATE ( 2021, 6, 12 ) ;
#87 = PERSON_AND_ORGANIZATION_ROLE ( 'design_supplier' ) ;
#88 = CALENDAR_DATE ( 2021, 6, 12 ) ;
#89 = EDGE_LOOP ( 'NONE', ( #130 ) ) ;
#90 = ORGANIZATION ( 'UNSPECIFIED', 'UNSPECIFIED', '' ) ;
#91 = DIRECTION ( 'NONE',  ( -3.491481338843133355E-15, 1.377727649040771896E-16, -1.000000000000000000 ) ) ;
#92 = CARTESIAN_POINT ( 'NONE',  ( 5.586370142149005480E-15, 11.00000000000000000, 1.599999999999997646 ) ) ;
#93 = APPROVAL ( #161, 'UNSPECIFIED' ) ;
#94 = DIRECTION ( 'NONE',  ( -3.491481338843133355E-15, 1.377727649040771896E-16, -1.000000000000000000 ) ) ;
#95 = CARTESIAN_POINT ( 'NONE',  ( 5.586370142148989703E-15, -2.204364238465225468E-16, 1.599999999999993205 ) ) ;
#96 = PERSON_AND_ORGANIZATION_ROLE ( 'classification_officer' ) ;
#97 = APPROVAL_DATE_TIME ( #150, #93 ) ;
#98 = APPROVAL_STATUS ( 'not_yet_approved' ) ;
#99 = MECHANICAL_CONTEXT ( 'NONE', #61, 'mechanical' ) ;
#100 =( GEOMETRIC_REPRESENTATION_CONTEXT ( 3 ) GLOBAL_UNCERTAINTY_ASSIGNED_CONTEXT ( ( #101 ) ) GLOBAL_UNIT_ASSIGNED_CONTEXT ( ( #103, #53, #64 ) ) REPRESENTATION_CONTEXT ( 'NONE', 'WORKASPACE' ) );
#101 = UNCERTAINTY_MEASURE_WITH_UNIT (LENGTH_MEASURE( 1.000000000000000082E-05 ), #103, 'distance_accuracy_value', 'NONE');
#102 = SECURITY_CLASSIFICATION ( '', '', #82 ) ;
#103 =( LENGTH_UNIT ( ) NAMED_UNIT ( * ) SI_UNIT ( .MILLI., .METRE. ) );
#104 = CARTESIAN_POINT ( 'NONE',  ( 0.0000000000000000000, 0.0000000000000000000, 0.0000000000000000000 ) ) ;
#105 = APPROVAL_PERSON_ORGANIZATION ( #2, #93, #151 ) ;
#106 = CARTESIAN_POINT ( 'NONE',  ( -2.736911063134408342E-45, 50.00000000000000000, 0.0000000000000000000 ) ) ;
#107 = COORDINATED_UNIVERSAL_TIME_OFFSET ( 1, 0, .AHEAD. ) ;
#108 = PERSON_AND_ORGANIZATION ( #115, #90 ) ;
#109 = COORDINATED_UNIVERSAL_TIME_OFFSET ( 1, 0, .AHEAD. ) ;
#110 = CC_DESIGN_DATE_AND_TIME_ASSIGNMENT ( #44, #15, ( #59 ) ) ;
#111 = DATE_AND_TIME ( #18, #63 ) ;
#112 = AXIS2_PLACEMENT_3D ( 'NONE', #95, #94, #80 ) ;
#113 = APPROVAL_PERSON_ORGANIZATION ( #55, #123, #71 ) ;
#114 = ORIENTED_EDGE ( 'NONE', *, *, #54, .T. ) ;
#115 = PERSON ( 'UNSPECIFIED', 'UNSPECIFIED', 'UNSPECIFIED', ('UNSPECIFIED'), ('UNSPECIFIED'), ('UNSPECIFIED') ) ;
#116 = CIRCLE ( 'NONE', #112, 50.00000000000000000 ) ;
#117 = ADVANCED_FACE ( 'NONE', ( #27, #136 ), #66, .T. ) ;
#118 = DIRECTION ( 'NONE',  ( 4.810310376634076462E-31, 1.000000000000000000, 1.377727649040771896E-16 ) ) ;
#119 = ADVANCED_BREP_SHAPE_REPRESENTATION ( '3438', ( #128, #126 ), #100 ) ;
#120 = VERTEX_POINT ( 'NONE', #157 ) ;
#121 = FACE_BOUND ( 'NONE', #89, .T. ) ;
#122 = DIRECTION ( 'NONE',  ( 3.491481338843133355E-15, -1.377727649040771896E-16, 1.000000000000000000 ) ) ;
#123 = APPROVAL ( #98, 'UNSPECIFIED' ) ;
#124 = DATE_AND_TIME ( #88, #72 ) ;
#125 = SHAPE_DEFINITION_REPRESENTATION ( #29, #119 ) ;
#126 = AXIS2_PLACEMENT_3D ( 'NONE', #104, #140, #32 ) ;
#127 = APPLICATION_PROTOCOL_DEFINITION ( 'international standard', 'config_control_design', 1994, #73 ) ;
#128 = MANIFOLD_SOLID_BREP ( 'Corps-Déplacer/Copier1', #129 ) ;
#129 = CLOSED_SHELL ( 'NONE', ( #117, #45, #165, #69 ) ) ;
#130 = ORIENTED_EDGE ( 'NONE', *, *, #16, .T. ) ;
#131 = PRODUCT_DEFINITION_FORMATION_WITH_SPECIFIED_SOURCE ( 'ANY', '', #137, .NOT_KNOWN. ) ;
#132 = DIRECTION ( 'NONE',  ( -3.491481338843133355E-15, 1.377727649040771896E-16, -1.000000000000000000 ) ) ;
#133 = FACE_OUTER_BOUND ( 'NONE', #23, .T. ) ;
#134 = AXIS2_PLACEMENT_3D ( 'NONE', #28, #41, #51 ) ;
#135 = DIRECTION ( 'NONE',  ( -3.491481338843133355E-15, 1.377727649040771896E-16, -1.000000000000000000 ) ) ;
#136 = FACE_BOUND ( 'NONE', #74, .T. ) ;
#137 = PRODUCT ( '3438', '3438', '', ( #99 ) ) ;
#138 = APPROVAL_DATE_TIME ( #33, #123 ) ;
#139 = CIRCLE ( 'NONE', #31, 50.00000000000000000 ) ;
#140 = DIRECTION ( 'NONE',  ( 0.0000000000000000000, 0.0000000000000000000, 1.000000000000000000 ) ) ;
#141 = ORIENTED_EDGE ( 'NONE', *, *, #16, .F. ) ;
#142 = DIRECTION ( 'NONE',  ( 4.810310376634076462E-31, 1.000000000000000000, 1.377727649040771896E-16 ) ) ;
#143 = CARTESIAN_POINT ( 'NONE',  ( 5.586370142149013368E-15, 50.00000000000000000, 1.600000000000000089 ) ) ;
#144 = FACE_OUTER_BOUND ( 'NONE', #6, .T. ) ;
#145 = CC_DESIGN_APPROVAL ( #93, ( #131 ) ) ;
#146 = CARTESIAN_POINT ( 'NONE',  ( 0.0000000000000000000, 0.0000000000000000000, 0.0000000000000000000 ) ) ;
#147 = VERTEX_POINT ( 'NONE', #143 ) ;
#148 = CC_DESIGN_APPROVAL ( #123, ( #102 ) ) ;
#149 = CALENDAR_DATE ( 2021, 6, 12 ) ;
#150 = DATE_AND_TIME ( #36, #22 ) ;
#151 = APPROVAL_ROLE ( '' ) ;
#152 = PERSON_AND_ORGANIZATION_ROLE ( 'design_owner' ) ;
#153 = EDGE_LOOP ( 'NONE', ( #50 ) ) ;
#154 = AXIS2_PLACEMENT_3D ( 'NONE', #10, #135, #62 ) ;
#155 = FACE_OUTER_BOUND ( 'NONE', #153, .T. ) ;
#156 = APPLICATION_PROTOCOL_DEFINITION ( 'international standard', 'config_control_design', 1994, #61 ) ;
#157 = CARTESIAN_POINT ( 'NONE',  ( 0.0000000000000000000, 11.00000000000000000, 0.0000000000000000000 ) ) ;
#158 = CC_DESIGN_PERSON_AND_ORGANIZATION_ASSIGNMENT ( #159, #96, ( #102 ) ) ;
#159 = PERSON_AND_ORGANIZATION ( #115, #90 ) ;
#160 = ORIENTED_EDGE ( 'NONE', *, *, #54, .F. ) ;
#161 = APPROVAL_STATUS ( 'not_yet_approved' ) ;
#162 = CC_DESIGN_DATE_AND_TIME_ASSIGNMENT ( #124, #4, ( #102 ) ) ;
#163 = CC_DESIGN_SECURITY_CLASSIFICATION ( #102, ( #131 ) ) ;
#164 = CYLINDRICAL_SURFACE ( 'NONE', #56, 11.00000000000000000 ) ;
#165 = ADVANCED_FACE ( 'NONE', ( #121, #40 ), #79, .T. ) ;
#166 = FACE_OUTER_BOUND ( 'NONE', #19, .T. ) ;
#167 = PERSON_AND_ORGANIZATION ( #115, #90 ) ;
#168 = AXIS2_PLACEMENT_3D ( 'NONE', #92, #122, #65 ) ;
#169 = COORDINATED_UNIVERSAL_TIME_OFFSET ( 1, 0, .AHEAD. ) ;
ENDSEC;
END-ISO-10303-21;
