ISO-10303-21;
HEADER;
FILE_DESCRIPTION (( 'STEP AP203' ),
    '1' );
FILE_NAME ('34340.step',
    '2021-09-03T07:22:01',
    ( '' ),
    ( '' ),
    'SwSTEP 2.0',
    'SolidWorks 2019',
    '' );
FILE_SCHEMA (( 'CONFIG_CONTROL_DESIGN' ));
ENDSEC;

DATA;
#1 = EDGE_CURVE ( 'NONE', #177, #141, #152, .T. ) ;
#2 = APPROVAL_PERSON_ORGANIZATION ( #195, #139, #145 ) ;
#3 = FACE_OUTER_BOUND ( 'NONE', #132, .T. ) ;
#4 = CYLINDRICAL_SURFACE ( 'NONE', #309, 5.100000000000000533 ) ;
#5 = CARTESIAN_POINT ( 'NONE',  ( 1.082359215041371340E-13, 5.099999999999993427, 31.00000000000000000 ) ) ;
#6 = DIRECTION ( 'NONE',  ( -3.491481338843133355E-15, 1.224646799147353207E-16, -1.000000000000000000 ) ) ;
#7 = APPLICATION_PROTOCOL_DEFINITION ( 'international standard', 'config_control_design', 1994, #24 ) ;
#8 = AXIS2_PLACEMENT_3D ( 'NONE', #114, #30, #137 ) ;
#9 = CONICAL_SURFACE ( 'NONE', #91, 5.099999999999993427, 1.029744258676649649 ) ;
#10 = CC_DESIGN_PERSON_AND_ORGANIZATION_ASSIGNMENT ( #267, #146, ( #219 ) ) ;
#11 = CIRCLE ( 'NONE', #262, 5.100000000000004086 ) ;
#12 = DATE_AND_TIME ( #231, #274 ) ;
#13 = ORIENTED_EDGE ( 'NONE', *, *, #331, .T. ) ;
#14 = DIRECTION ( 'NONE',  ( -2.382254525458719047E-15, -0.7071067811865467956, -0.7071067811865483499 ) ) ;
#15 = DIRECTION ( 'NONE',  ( -3.491481338843133355E-15, 1.224646799147353207E-16, -1.000000000000000000 ) ) ;
#16 = ORIENTED_EDGE ( 'NONE', *, *, #101, .T. ) ;
#17 = CC_DESIGN_APPROVAL ( #139, ( #143 ) ) ;
#18 = UNCERTAINTY_MEASURE_WITH_UNIT (LENGTH_MEASURE( 1.000000000000000082E-05 ), #151, 'distance_accuracy_value', 'NONE');
#19 = VECTOR ( 'NONE', #295, 1000.000000000000000 ) ;
#20 = LINE ( 'NONE', #79, #251 ) ;
#21 = FACE_OUTER_BOUND ( 'NONE', #234, .T. ) ;
#22 = CARTESIAN_POINT ( 'NONE',  ( 3.107418391570388560E-13, 3.074507554456794959E-32, 89.00000000000000000 ) ) ;
#23 = DIRECTION ( 'NONE',  ( -3.491481338843133355E-15, 1.224646799147353207E-16, -1.000000000000000000 ) ) ;
#24 = APPLICATION_CONTEXT ( 'configuration controlled 3d designs of mechanical parts and assemblies' ) ;
#25 = EDGE_CURVE ( 'NONE', #153, #51, #193, .T. ) ;
#26 = DIRECTION ( 'NONE',  ( 4.275831445896958607E-31, 1.000000000000000000, 1.224646799147353207E-16 ) ) ;
#27 = FACE_OUTER_BOUND ( 'NONE', #250, .T. ) ;
#28 = AXIS2_PLACEMENT_3D ( 'NONE', #230, #266, #119 ) ;
#29 = EDGE_LOOP ( 'NONE', ( #54, #208, #65, #149 ) ) ;
#30 = DIRECTION ( 'NONE',  ( -3.491481338843133355E-15, 1.224646799147353207E-16, -1.000000000000000000 ) ) ;
#31 = DIRECTION ( 'NONE',  ( -4.275831445896958607E-31, -1.000000000000000000, -1.224646799147353207E-16 ) ) ;
#32 = ORIENTED_EDGE ( 'NONE', *, *, #203, .F. ) ;
#33 = ADVANCED_FACE ( 'NONE', ( #296 ), #44, .T. ) ;
#34 = APPROVAL_DATE_TIME ( #238, #212 ) ;
#35 = PERSON ( 'UNSPECIFIED', 'UNSPECIFIED', 'UNSPECIFIED', ('UNSPECIFIED'), ('UNSPECIFIED'), ('UNSPECIFIED') ) ;
#36 = ORIENTED_EDGE ( 'NONE', *, *, #292, .F. ) ;
#37 = AXIS2_PLACEMENT_3D ( 'NONE', #183, #80, #26 ) ;
#38 = CARTESIAN_POINT ( 'NONE',  ( 6.009215939801389628E-14, -5.100000000000000533, 31.00000000000000000 ) ) ;
#39 = DIRECTION ( 'NONE',  ( -3.491481338843133355E-15, 1.224646799147353207E-16, -1.000000000000000000 ) ) ;
#40 = ORIENTED_EDGE ( 'NONE', *, *, #1, .T. ) ;
#41 = APPROVAL_STATUS ( 'not_yet_approved' ) ;
#42 = DIRECTION ( 'NONE',  ( -3.491481338843133355E-15, 1.224646799147353207E-16, -1.000000000000000000 ) ) ;
#43 = COORDINATED_UNIVERSAL_TIME_OFFSET ( 1, 0, .AHEAD. ) ;
#44 = CYLINDRICAL_SURFACE ( 'NONE', #98, 5.099999999999995204 ) ;
#45 = PERSON_AND_ORGANIZATION_ROLE ( 'creator' ) ;
#46 = EDGE_CURVE ( 'NONE', #153, #216, #209, .T. ) ;
#47 =( NAMED_UNIT ( * ) SI_UNIT ( $, .STERADIAN. ) SOLID_ANGLE_UNIT ( ) );
#48 = ORIENTED_EDGE ( 'NONE', *, *, #179, .T. ) ;
#49 = EDGE_CURVE ( 'NONE', #260, #258, #74, .T. ) ;
#50 = COORDINATED_UNIVERSAL_TIME_OFFSET ( 1, 0, .AHEAD. ) ;
#51 = VERTEX_POINT ( 'NONE', #154 ) ;
#52 = LINE ( 'NONE', #232, #332 ) ;
#53 = AXIS2_PLACEMENT_3D ( 'NONE', #120, #39, #227 ) ;
#54 = ORIENTED_EDGE ( 'NONE', *, *, #265, .T. ) ;
#55 = ORIENTED_EDGE ( 'NONE', *, *, #131, .T. ) ;
#56 = CARTESIAN_POINT ( 'NONE',  ( 1.069925755676044870E-14, -3.752794372511610345E-16, 3.064389157040587008 ) ) ;
#57 = ORIENTED_EDGE ( 'NONE', *, *, #233, .F. ) ;
#58 = APPROVAL_PERSON_ORGANIZATION ( #187, #212, #283 ) ;
#59 = ADVANCED_FACE ( 'NONE', ( #21 ), #9, .T. ) ;
#60 = PLANE ( 'NONE',  #257 ) ;
#61 = CC_DESIGN_PERSON_AND_ORGANIZATION_ASSIGNMENT ( #148, #225, ( #279 ) ) ;
#62 = DIRECTION ( 'NONE',  ( 3.491481338843133355E-15, -1.224646799147353207E-16, 1.000000000000000000 ) ) ;
#63 = CIRCLE ( 'NONE', #164, 5.099999999999996980 ) ;
#64 = CARTESIAN_POINT ( 'NONE',  ( 6.245698675651473229E-16, -5.099999999999995204, -6.245698675651516616E-16 ) ) ;
#65 = ORIENTED_EDGE ( 'NONE', *, *, #179, .F. ) ;
#66 = LINE ( 'NONE', #64, #115 ) ;
#67 = ORIENTED_EDGE ( 'NONE', *, *, #95, .F. ) ;
#68 = DIRECTION ( 'NONE',  ( -3.491481338843133355E-15, 1.224646799147353207E-16, -1.000000000000000000 ) ) ;
#69 = CARTESIAN_POINT ( 'NONE',  ( 1.082359215041371340E-13, 5.099999999999993427, 31.00000000000000000 ) ) ;
#70 = CARTESIAN_POINT ( 'NONE',  ( 1.069925755676044870E-14, -3.752794372511610345E-16, 3.064389157040587008 ) ) ;
#71 = PRODUCT_DEFINITION_SHAPE ( 'NONE', 'NONE',  #143 ) ;
#72 = SHAPE_DEFINITION_REPRESENTATION ( #71, #190 ) ;
#73 = SECURITY_CLASSIFICATION ( '', '', #248 ) ;
#74 = CIRCLE ( 'NONE', #259, 4.100000000000004974 ) ;
#75 = PERSON_AND_ORGANIZATION ( #35, #78 ) ;
#76 = PERSON_AND_ORGANIZATION ( #35, #78 ) ;
#77 = VERTEX_POINT ( 'NONE', #159 ) ;
#78 = ORGANIZATION ( 'UNSPECIFIED', 'UNSPECIFIED', '' ) ;
#79 = CARTESIAN_POINT ( 'NONE',  ( 3.112439443446892928E-13, -4.100000000000015632, 89.00000000000000000 ) ) ;
#80 = DIRECTION ( 'NONE',  ( -3.491481338843133355E-15, 1.224646799147353207E-16, -1.000000000000000000 ) ) ;
#81 = DATE_AND_TIME ( #180, #320 ) ;
#82 = DIRECTION ( 'NONE',  ( -3.491481338843133355E-15, 1.224646799147353207E-16, -1.000000000000000000 ) ) ;
#83 = CARTESIAN_POINT ( 'NONE',  ( 3.107418391570388560E-13, -1.089935651241144239E-14, 89.00000000000000000 ) ) ;
#84 = CC_DESIGN_PERSON_AND_ORGANIZATION_ASSIGNMENT ( #75, #173, ( #219 ) ) ;
#85 = CIRCLE ( 'NONE', #96, 5.099999999999993427 ) ;
#86 = DESIGN_CONTEXT ( 'detailed design', #168, 'design' ) ;
#87 = ORIENTED_EDGE ( 'NONE', *, *, #95, .T. ) ;
#88 = DIRECTION ( 'NONE',  ( 4.275831445896958607E-31, 1.000000000000000000, 1.224646799147353207E-16 ) ) ;
#89 = CARTESIAN_POINT ( 'NONE',  ( 3.107418391570388560E-13, -1.089935651241144239E-14, 89.00000000000000000 ) ) ;
#90 = AXIS2_PLACEMENT_3D ( 'NONE', #211, #310, #88 ) ;
#91 = AXIS2_PLACEMENT_3D ( 'NONE', #174, #308, #184 ) ;
#92 = FACE_OUTER_BOUND ( 'NONE', #299, .T. ) ;
#93 = COORDINATED_UNIVERSAL_TIME_OFFSET ( 1, 0, .AHEAD. ) ;
#94 = DIRECTION ( 'NONE',  ( -3.491481338843133355E-15, 1.224646799147353207E-16, -1.000000000000000000 ) ) ;
#95 = EDGE_CURVE ( 'NONE', #216, #268, #244, .T. ) ;
#96 = AXIS2_PLACEMENT_3D ( 'NONE', #70, #82, #158 ) ;
#97 = CALENDAR_DATE ( 2021, 3, 9 ) ;
#98 = AXIS2_PLACEMENT_3D ( 'NONE', #228, #333, #108 ) ;
#99 = VERTEX_POINT ( 'NONE', #272 ) ;
#100 = FACE_OUTER_BOUND ( 'NONE', #29, .T. ) ;
#101 = EDGE_CURVE ( 'NONE', #51, #268, #52, .T. ) ;
#102 = CARTESIAN_POINT ( 'NONE',  ( 0.0000000000000000000, 0.0000000000000000000, 0.0000000000000000000 ) ) ;
#103 = ORIENTED_EDGE ( 'NONE', *, *, #117, .T. ) ;
#104 = APPROVAL_DATE_TIME ( #200, #110 ) ;
#105 = DIRECTION ( 'NONE',  ( -3.491481338843133355E-15, 1.224646799147353207E-16, -1.000000000000000000 ) ) ;
#106 = DIRECTION ( 'NONE',  ( -3.491481338843133355E-15, 1.224646799147353207E-16, -1.000000000000000000 ) ) ;
#107 =( GEOMETRIC_REPRESENTATION_CONTEXT ( 3 ) GLOBAL_UNCERTAINTY_ASSIGNED_CONTEXT ( ( #18 ) ) GLOBAL_UNIT_ASSIGNED_CONTEXT ( ( #151, #169, #47 ) ) REPRESENTATION_CONTEXT ( 'NONE', 'WORKASPACE' ) );
#108 = DIRECTION ( 'NONE',  ( 4.275831445896958607E-31, 1.000000000000000000, 1.224646799147353207E-16 ) ) ;
#109 = ORIENTED_EDGE ( 'NONE', *, *, #1, .F. ) ;
#110 = APPROVAL ( #197, 'UNSPECIFIED' ) ;
#111 = CARTESIAN_POINT ( 'NONE',  ( 3.107418391570388560E-13, 4.099999999999993427, 89.00000000000000000 ) ) ;
#112 = CYLINDRICAL_SURFACE ( 'NONE', #90, 5.100000000000000533 ) ;
#113 = CC_DESIGN_SECURITY_CLASSIFICATION ( #73, ( #219 ) ) ;
#114 = CARTESIAN_POINT ( 'NONE',  ( 1.069925755676044870E-14, -3.752794372511610345E-16, 3.064389157040587008 ) ) ;
#115 = VECTOR ( 'NONE', #313, 1000.000000000000000 ) ;
#116 = ADVANCED_FACE ( 'NONE', ( #205 ), #128, .T. ) ;
#117 = EDGE_CURVE ( 'NONE', #99, #77, #142, .T. ) ;
#118 = CARTESIAN_POINT ( 'NONE',  ( 2.083677095287315372E-13, -5.100000000000000533, 31.00000000000000000 ) ) ;
#119 = DIRECTION ( 'NONE',  ( 0.0000000000000000000, 1.000000000000000000, 0.0000000000000000000 ) ) ;
#120 = CARTESIAN_POINT ( 'NONE',  ( 3.072503578181957353E-13, -1.077689183249670724E-14, 88.00000000000000000 ) ) ;
#121 = ADVANCED_FACE ( 'NONE', ( #140 ), #220, .T. ) ;
#122 = DIRECTION ( 'NONE',  ( 3.491481338843133355E-15, -1.224646799147353207E-16, 1.000000000000000000 ) ) ;
#123 = DIRECTION ( 'NONE',  ( -3.491481338843133355E-15, 1.224646799147353207E-16, -1.000000000000000000 ) ) ;
#124 = AXIS2_PLACEMENT_3D ( 'NONE', #89, #162, #186 ) ;
#125 = VECTOR ( 'NONE', #188, 1000.000000000000000 ) ;
#126 = APPROVAL_DATE_TIME ( #12, #139 ) ;
#127 = ORIENTED_EDGE ( 'NONE', *, *, #292, .T. ) ;
#128 = PLANE ( 'NONE',  #130 ) ;
#129 = EDGE_LOOP ( 'NONE', ( #291, #252, #16, #67 ) ) ;
#130 = AXIS2_PLACEMENT_3D ( 'NONE', #161, #122, #300 ) ;
#131 = EDGE_CURVE ( 'NONE', #99, #160, #322, .T. ) ;
#132 = EDGE_LOOP ( 'NONE', ( #48, #87 ) ) ;
#133 = CARTESIAN_POINT ( 'NONE',  ( 2.180674037407446805E-30, 5.099999999999995204, 6.245698675651495909E-16 ) ) ;
#134 = CARTESIAN_POINT ( 'NONE',  ( 3.095594360152250622E-13, -4.100000000000015632, 89.00000000000000000 ) ) ;
#135 = AXIS2_PLACEMENT_3D ( 'NONE', #221, #315, #31 ) ;
#136 = DIRECTION ( 'NONE',  ( -3.491481338843133355E-15, 1.224646799147353207E-16, -1.000000000000000000 ) ) ;
#137 = DIRECTION ( 'NONE',  ( 3.021066579430961919E-31, 1.000000000000000000, 8.503546450866711908E-17 ) ) ;
#138 = EDGE_LOOP ( 'NONE', ( #185, #294, #321, #181 ) ) ;
#139 = APPROVAL ( #41, 'UNSPECIFIED' ) ;
#140 = FACE_OUTER_BOUND ( 'NONE', #226, .T. ) ;
#141 = VERTEX_POINT ( 'NONE', #38 ) ;
#142 = LINE ( 'NONE', #242, #314 ) ;
#143 = PRODUCT_DEFINITION ( 'UNKNOWN', '', #219, #86 ) ;
#144 = LOCAL_TIME ( 9, 22, 1.000000000000000000, #147 ) ;
#145 = APPROVAL_ROLE ( '' ) ;
#146 = PERSON_AND_ORGANIZATION_ROLE ( 'design_supplier' ) ;
#147 = COORDINATED_UNIVERSAL_TIME_OFFSET ( 1, 0, .AHEAD. ) ;
#148 = PERSON_AND_ORGANIZATION ( #35, #78 ) ;
#149 = ORIENTED_EDGE ( 'NONE', *, *, #101, .F. ) ;
#150 = PRODUCT_RELATED_PRODUCT_CATEGORY ( 'detail', '', ( #279 ) ) ;
#151 =( LENGTH_UNIT ( ) NAMED_UNIT ( * ) SI_UNIT ( .MILLI., .METRE. ) );
#152 = CIRCLE ( 'NONE', #336, 5.099999999999996980 ) ;
#153 = VERTEX_POINT ( 'NONE', #325 ) ;
#154 = CARTESIAN_POINT ( 'NONE',  ( 3.072503578181957353E-13, 5.099999999999993427, 88.00000000000000000 ) ) ;
#155 = CARTESIAN_POINT ( 'NONE',  ( 6.245698675651480131E-16, -5.100000000000000533, -6.245698675651522533E-16 ) ) ;
#156 = CLOSED_SHELL ( 'NONE', ( #121, #166, #270, #189, #303, #206 ) ) ;
#157 = FACE_OUTER_BOUND ( 'NONE', #273, .T. ) ;
#158 = DIRECTION ( 'NONE',  ( 3.021066579430961919E-31, 1.000000000000000000, 8.503546450866711908E-17 ) ) ;
#159 = CARTESIAN_POINT ( 'NONE',  ( 1.132382742432560016E-14, 5.099999999999993427, 3.064389157040587452 ) ) ;
#160 = VERTEX_POINT ( 'NONE', #196 ) ;
#161 = CARTESIAN_POINT ( 'NONE',  ( 1.082359215041371340E-13, 3.824387445787729784E-32, 31.00000000000000000 ) ) ;
#162 = DIRECTION ( 'NONE',  ( -3.491481338843133355E-15, 1.224646799147353207E-16, -1.000000000000000000 ) ) ;
#163 = CC_DESIGN_DATE_AND_TIME_ASSIGNMENT ( #214, #317, ( #143 ) ) ;
#164 = AXIS2_PLACEMENT_3D ( 'NONE', #269, #42, #245 ) ;
#165 = MANIFOLD_SOLID_BREP ( 'Corps-Déplacer/Copier1[2]', #264 ) ;
#166 = ADVANCED_FACE ( 'NONE', ( #100 ), #4, .T. ) ;
#167 = PERSON_AND_ORGANIZATION ( #35, #78 ) ;
#168 = APPLICATION_CONTEXT ( 'configuration controlled 3d designs of mechanical parts and assemblies' ) ;
#169 =( NAMED_UNIT ( * ) PLANE_ANGLE_UNIT ( ) SI_UNIT ( $, .RADIAN. ) );
#170 = APPROVAL_ROLE ( '' ) ;
#171 = PERSON_AND_ORGANIZATION ( #35, #78 ) ;
#172 = CONICAL_SURFACE ( 'NONE', #304, 5.099999999999993427, 1.029744258676649649 ) ;
#173 = PERSON_AND_ORGANIZATION_ROLE ( 'creator' ) ;
#174 = CARTESIAN_POINT ( 'NONE',  ( 1.069925755676044870E-14, -3.752794372511610345E-16, 3.064389157040587008 ) ) ;
#175 = APPROVAL_PERSON_ORGANIZATION ( #167, #110, #170 ) ;
#176 = VECTOR ( 'NONE', #23, 1000.000000000000000 ) ;
#177 = VERTEX_POINT ( 'NONE', #69 ) ;
#178 = MANIFOLD_SOLID_BREP ( 'Corps-Déplacer/Copier1[1]', #156 ) ;
#179 = EDGE_CURVE ( 'NONE', #268, #216, #63, .T. ) ;
#180 = CALENDAR_DATE ( 2021, 3, 9 ) ;
#181 = ORIENTED_EDGE ( 'NONE', *, *, #316, .F. ) ;
#182 = VECTOR ( 'NONE', #236, 1000.000000000000000 ) ;
#183 = CARTESIAN_POINT ( 'NONE',  ( 0.0000000000000000000, 0.0000000000000000000, 0.0000000000000000000 ) ) ;
#184 = DIRECTION ( 'NONE',  ( -3.021066579430961919E-31, -1.000000000000000000, -8.503546450866711908E-17 ) ) ;
#185 = ORIENTED_EDGE ( 'NONE', *, *, #331, .F. ) ;
#186 = DIRECTION ( 'NONE',  ( 0.0000000000000000000, 1.000000000000000000, 0.0000000000000000000 ) ) ;
#187 = PERSON_AND_ORGANIZATION ( #35, #78 ) ;
#188 = DIRECTION ( 'NONE',  ( -2.468850131082267710E-15, 0.7071067811865470176, -0.7071067811865481278 ) ) ;
#189 = ADVANCED_FACE ( 'NONE', ( #297 ), #112, .T. ) ;
#190 = ADVANCED_BREP_SHAPE_REPRESENTATION ( '34340', ( #178, #165, #201 ), #107 ) ;
#191 = AXIS2_PLACEMENT_3D ( 'NONE', #213, #94, #312 ) ;
#192 = DIRECTION ( 'NONE',  ( 0.0000000000000000000, 1.000000000000000000, 0.0000000000000000000 ) ) ;
#193 = CIRCLE ( 'NONE', #53, 5.100000000000004086 ) ;
#194 = ORIENTED_EDGE ( 'NONE', *, *, #117, .F. ) ;
#195 = PERSON_AND_ORGANIZATION ( #35, #78 ) ;
#196 = CARTESIAN_POINT ( 'NONE',  ( 1.069925755676044712E-14, -5.099999999999993427, 3.064389157040586564 ) ) ;
#197 = APPROVAL_STATUS ( 'not_yet_approved' ) ;
#198 = CARTESIAN_POINT ( 'NONE',  ( 1.069925755676044712E-14, -5.099999999999993427, 3.064389157040586564 ) ) ;
#199 = DIRECTION ( 'NONE',  ( 4.275831445896958607E-31, 1.000000000000000000, 1.224646799147353207E-16 ) ) ;
#200 = DATE_AND_TIME ( #246, #298 ) ;
#201 = AXIS2_PLACEMENT_3D ( 'NONE', #102, #293, #229 ) ;
#202 = DIRECTION ( 'NONE',  ( 1.903218546456022717E-15, 0.8571673007021097801, 0.5150380749100585964 ) ) ;
#203 = EDGE_CURVE ( 'NONE', #177, #77, #275, .T. ) ;
#204 = COORDINATED_UNIVERSAL_TIME_OFFSET ( 1, 0, .AHEAD. ) ;
#205 = FACE_OUTER_BOUND ( 'NONE', #284, .T. ) ;
#206 = ADVANCED_FACE ( 'NONE', ( #157 ), #60, .F. ) ;
#207 = CIRCLE ( 'NONE', #335, 5.099999999999996980 ) ;
#208 = ORIENTED_EDGE ( 'NONE', *, *, #46, .T. ) ;
#209 = LINE ( 'NONE', #155, #176 ) ;
#210 = ORIENTED_EDGE ( 'NONE', *, *, #49, .F. ) ;
#211 = CARTESIAN_POINT ( 'NONE',  ( 0.0000000000000000000, 0.0000000000000000000, 0.0000000000000000000 ) ) ;
#212 = APPROVAL ( #290, 'UNSPECIFIED' ) ;
#213 = CARTESIAN_POINT ( 'NONE',  ( 3.107418391570388560E-13, -1.089935651241144239E-14, 89.00000000000000000 ) ) ;
#214 = DATE_AND_TIME ( #328, #144 ) ;
#215 = DIRECTION ( 'NONE',  ( 0.0000000000000000000, 1.000000000000000000, 0.0000000000000000000 ) ) ;
#216 = VERTEX_POINT ( 'NONE', #118 ) ;
#217 = CC_DESIGN_PERSON_AND_ORGANIZATION_ASSIGNMENT ( #171, #45, ( #143 ) ) ;
#218 = PLANE ( 'NONE',  #135 ) ;
#219 = PRODUCT_DEFINITION_FORMATION_WITH_SPECIFIED_SOURCE ( 'ANY', '', #279, .NOT_KNOWN. ) ;
#220 = CONICAL_SURFACE ( 'NONE', #28, 4.100000000000004974, 0.7853981633974473908 ) ;
#221 = CARTESIAN_POINT ( 'NONE',  ( 1.082359215041371340E-13, 3.824387445787729784E-32, 31.00000000000000000 ) ) ;
#222 = CARTESIAN_POINT ( 'NONE',  ( 0.0000000000000000000, 0.0000000000000000000, 0.0000000000000000000 ) ) ;
#223 = ORIENTED_EDGE ( 'NONE', *, *, #49, .T. ) ;
#224 = CONICAL_SURFACE ( 'NONE', #191, 4.100000000000004974, 0.7853981633974473908 ) ;
#225 = PERSON_AND_ORGANIZATION_ROLE ( 'design_owner' ) ;
#226 = EDGE_LOOP ( 'NONE', ( #261, #319, #235, #36 ) ) ;
#227 = DIRECTION ( 'NONE',  ( 0.0000000000000000000, 1.000000000000000000, 0.0000000000000000000 ) ) ;
#228 = CARTESIAN_POINT ( 'NONE',  ( 0.0000000000000000000, 0.0000000000000000000, 0.0000000000000000000 ) ) ;
#229 = DIRECTION ( 'NONE',  ( 1.000000000000000000, 0.0000000000000000000, 0.0000000000000000000 ) ) ;
#230 = CARTESIAN_POINT ( 'NONE',  ( 3.107418391570388560E-13, -1.089935651241144239E-14, 89.00000000000000000 ) ) ;
#231 = CALENDAR_DATE ( 2021, 3, 9 ) ;
#232 = CARTESIAN_POINT ( 'NONE',  ( 2.180674037407449257E-30, 5.100000000000000533, 6.245698675651501825E-16 ) ) ;
#233 = EDGE_CURVE ( 'NONE', #77, #160, #85, .T. ) ;
#234 = EDGE_LOOP ( 'NONE', ( #194, #55, #278 ) ) ;
#235 = ORIENTED_EDGE ( 'NONE', *, *, #265, .F. ) ;
#236 = DIRECTION ( 'NONE',  ( -3.491481338843133355E-15, 1.224646799147353207E-16, -1.000000000000000000 ) ) ;
#237 = DIRECTION ( 'NONE',  ( -3.021066579430961919E-31, -1.000000000000000000, -8.503546450866711908E-17 ) ) ;
#238 = DATE_AND_TIME ( #97, #239 ) ;
#239 = LOCAL_TIME ( 9, 22, 1.000000000000000000, #93 ) ;
#240 = LINE ( 'NONE', #280, #125 ) ;
#241 = ADVANCED_FACE ( 'NONE', ( #27 ), #172, .T. ) ;
#242 = CARTESIAN_POINT ( 'NONE',  ( 1.132382742432560016E-14, 5.099999999999993427, 3.064389157040587452 ) ) ;
#243 = CIRCLE ( 'NONE', #8, 5.099999999999993427 ) ;
#244 = CIRCLE ( 'NONE', #271, 5.099999999999996980 ) ;
#245 = DIRECTION ( 'NONE',  ( 0.0000000000000000000, 1.000000000000000000, 0.0000000000000000000 ) ) ;
#246 = CALENDAR_DATE ( 2021, 3, 9 ) ;
#247 = EDGE_CURVE ( 'NONE', #260, #153, #20, .T. ) ;
#248 = SECURITY_CLASSIFICATION_LEVEL ( 'unclassified' ) ;
#249 = ADVANCED_FACE ( 'NONE', ( #305 ), #330, .T. ) ;
#250 = EDGE_LOOP ( 'NONE', ( #334, #103, #254 ) ) ;
#251 = VECTOR ( 'NONE', #14, 1000.000000000000000 ) ;
#252 = ORIENTED_EDGE ( 'NONE', *, *, #25, .T. ) ;
#253 = DIRECTION ( 'NONE',  ( 0.0000000000000000000, 1.000000000000000000, 0.0000000000000000000 ) ) ;
#254 = ORIENTED_EDGE ( 'NONE', *, *, #233, .T. ) ;
#255 = CARTESIAN_POINT ( 'NONE',  ( 1.082359215041371340E-13, -3.796405077356795115E-15, 31.00000000000000000 ) ) ;
#256 = ORIENTED_EDGE ( 'NONE', *, *, #323, .F. ) ;
#257 = AXIS2_PLACEMENT_3D ( 'NONE', #22, #123, #199 ) ;
#258 = VERTEX_POINT ( 'NONE', #111 ) ;
#259 = AXIS2_PLACEMENT_3D ( 'NONE', #83, #15, #253 ) ;
#260 = VERTEX_POINT ( 'NONE', #134 ) ;
#261 = ORIENTED_EDGE ( 'NONE', *, *, #311, .T. ) ;
#262 = AXIS2_PLACEMENT_3D ( 'NONE', #276, #307, #286 ) ;
#263 = CIRCLE ( 'NONE', #124, 4.100000000000004974 ) ;
#264 = CLOSED_SHELL ( 'NONE', ( #33, #241, #59, #249, #116 ) ) ;
#265 = EDGE_CURVE ( 'NONE', #51, #153, #11, .T. ) ;
#266 = DIRECTION ( 'NONE',  ( -3.491481338843133355E-15, 1.224646799147353207E-16, -1.000000000000000000 ) ) ;
#267 = PERSON_AND_ORGANIZATION ( #35, #78 ) ;
#268 = VERTEX_POINT ( 'NONE', #5 ) ;
#269 = CARTESIAN_POINT ( 'NONE',  ( 1.082359215041371340E-13, -3.796405077356795115E-15, 31.00000000000000000 ) ) ;
#270 = ADVANCED_FACE ( 'NONE', ( #3 ), #218, .F. ) ;
#271 = AXIS2_PLACEMENT_3D ( 'NONE', #255, #105, #302 ) ;
#272 = CARTESIAN_POINT ( 'NONE',  ( 0.0000000000000000000, 0.0000000000000000000, 0.0000000000000000000 ) ) ;
#273 = EDGE_LOOP ( 'NONE', ( #285, #210 ) ) ;
#274 = LOCAL_TIME ( 9, 22, 1.000000000000000000, #204 ) ;
#275 = LINE ( 'NONE', #133, #182 ) ;
#276 = CARTESIAN_POINT ( 'NONE',  ( 3.072503578181957353E-13, -1.077689183249670724E-14, 88.00000000000000000 ) ) ;
#277 = DATE_TIME_ROLE ( 'classification_date' ) ;
#278 = ORIENTED_EDGE ( 'NONE', *, *, #316, .T. ) ;
#279 = PRODUCT ( '34340', '34340', '', ( #324 ) ) ;
#280 = CARTESIAN_POINT ( 'NONE',  ( 3.107418391570388560E-13, 4.099999999999993427, 89.00000000000000000 ) ) ;
#281 = CC_DESIGN_APPROVAL ( #110, ( #219 ) ) ;
#282 = CARTESIAN_POINT ( 'NONE',  ( 1.082359215041371340E-13, -3.796405077356795115E-15, 31.00000000000000000 ) ) ;
#283 = APPROVAL_ROLE ( '' ) ;
#284 = EDGE_LOOP ( 'NONE', ( #109, #256 ) ) ;
#285 = ORIENTED_EDGE ( 'NONE', *, *, #311, .F. ) ;
#286 = DIRECTION ( 'NONE',  ( 0.0000000000000000000, 1.000000000000000000, 0.0000000000000000000 ) ) ;
#287 = CC_DESIGN_PERSON_AND_ORGANIZATION_ASSIGNMENT ( #76, #301, ( #73 ) ) ;
#288 = CC_DESIGN_APPROVAL ( #212, ( #73 ) ) ;
#289 = DIRECTION ( 'NONE',  ( 4.275831445896958607E-31, 1.000000000000000000, 1.224646799147353207E-16 ) ) ;
#290 = APPROVAL_STATUS ( 'not_yet_approved' ) ;
#291 = ORIENTED_EDGE ( 'NONE', *, *, #46, .F. ) ;
#292 = EDGE_CURVE ( 'NONE', #258, #51, #240, .T. ) ;
#293 = DIRECTION ( 'NONE',  ( 0.0000000000000000000, 0.0000000000000000000, 1.000000000000000000 ) ) ;
#294 = ORIENTED_EDGE ( 'NONE', *, *, #323, .T. ) ;
#295 = DIRECTION ( 'NONE',  ( 1.798245827342160317E-15, -0.8571673007021098911, 0.5150380749100582634 ) ) ;
#296 = FACE_OUTER_BOUND ( 'NONE', #329, .T. ) ;
#297 = FACE_OUTER_BOUND ( 'NONE', #129, .T. ) ;
#298 = LOCAL_TIME ( 9, 22, 1.000000000000000000, #43 ) ;
#299 = EDGE_LOOP ( 'NONE', ( #337, #223, #127, #306 ) ) ;
#300 = DIRECTION ( 'NONE',  ( -4.275831445896958607E-31, -1.000000000000000000, -1.224646799147353207E-16 ) ) ;
#301 = PERSON_AND_ORGANIZATION_ROLE ( 'classification_officer' ) ;
#302 = DIRECTION ( 'NONE',  ( 0.0000000000000000000, 1.000000000000000000, 0.0000000000000000000 ) ) ;
#303 = ADVANCED_FACE ( 'NONE', ( #92 ), #224, .T. ) ;
#304 = AXIS2_PLACEMENT_3D ( 'NONE', #56, #62, #237 ) ;
#305 = FACE_OUTER_BOUND ( 'NONE', #138, .T. ) ;
#306 = ORIENTED_EDGE ( 'NONE', *, *, #25, .F. ) ;
#307 = DIRECTION ( 'NONE',  ( -3.491481338843133355E-15, 1.224646799147353207E-16, -1.000000000000000000 ) ) ;
#308 = DIRECTION ( 'NONE',  ( 3.491481338843133355E-15, -1.224646799147353207E-16, 1.000000000000000000 ) ) ;
#309 = AXIS2_PLACEMENT_3D ( 'NONE', #222, #6, #289 ) ;
#310 = DIRECTION ( 'NONE',  ( -3.491481338843133355E-15, 1.224646799147353207E-16, -1.000000000000000000 ) ) ;
#311 = EDGE_CURVE ( 'NONE', #258, #260, #263, .T. ) ;
#312 = DIRECTION ( 'NONE',  ( 0.0000000000000000000, 1.000000000000000000, 0.0000000000000000000 ) ) ;
#313 = DIRECTION ( 'NONE',  ( -3.491481338843133355E-15, 1.224646799147353207E-16, -1.000000000000000000 ) ) ;
#314 = VECTOR ( 'NONE', #202, 999.9999999999998863 ) ;
#315 = DIRECTION ( 'NONE',  ( 3.491481338843133355E-15, -1.224646799147353207E-16, 1.000000000000000000 ) ) ;
#316 = EDGE_CURVE ( 'NONE', #160, #77, #243, .T. ) ;
#317 = DATE_TIME_ROLE ( 'creation_date' ) ;
#318 = CARTESIAN_POINT ( 'NONE',  ( 1.082359215041371340E-13, -3.796405077356795115E-15, 31.00000000000000000 ) ) ;
#319 = ORIENTED_EDGE ( 'NONE', *, *, #247, .T. ) ;
#320 = LOCAL_TIME ( 9, 22, 1.000000000000000000, #50 ) ;
#321 = ORIENTED_EDGE ( 'NONE', *, *, #203, .T. ) ;
#322 = LINE ( 'NONE', #198, #19 ) ;
#323 = EDGE_CURVE ( 'NONE', #141, #177, #207, .T. ) ;
#324 = MECHANICAL_CONTEXT ( 'NONE', #24, 'mechanical' ) ;
#325 = CARTESIAN_POINT ( 'NONE',  ( 2.083677095287314362E-13, -5.100000000000013856, 88.00000000000000000 ) ) ;
#326 = APPLICATION_PROTOCOL_DEFINITION ( 'international standard', 'config_control_design', 1994, #168 ) ;
#327 = CC_DESIGN_DATE_AND_TIME_ASSIGNMENT ( #81, #277, ( #73 ) ) ;
#328 = CALENDAR_DATE ( 2021, 3, 9 ) ;
#329 = EDGE_LOOP ( 'NONE', ( #40, #13, #57, #32 ) ) ;
#330 = CYLINDRICAL_SURFACE ( 'NONE', #37, 5.099999999999995204 ) ;
#331 = EDGE_CURVE ( 'NONE', #141, #160, #66, .T. ) ;
#332 = VECTOR ( 'NONE', #106, 1000.000000000000000 ) ;
#333 = DIRECTION ( 'NONE',  ( -3.491481338843133355E-15, 1.224646799147353207E-16, -1.000000000000000000 ) ) ;
#334 = ORIENTED_EDGE ( 'NONE', *, *, #131, .F. ) ;
#335 = AXIS2_PLACEMENT_3D ( 'NONE', #282, #136, #215 ) ;
#336 = AXIS2_PLACEMENT_3D ( 'NONE', #318, #68, #192 ) ;
#337 = ORIENTED_EDGE ( 'NONE', *, *, #247, .F. ) ;
ENDSEC;
END-ISO-10303-21;
