ISO-10303-21;
HEADER;
FILE_DESCRIPTION (( 'STEP AP203' ),
    '1' );
FILE_NAME ('3433.step',
    '2021-12-06T12:58:57',
    ( '' ),
    ( '' ),
    'SwSTEP 2.0',
    'SolidWorks 2019',
    '' );
FILE_SCHEMA (( 'CONFIG_CONTROL_DESIGN' ));
ENDSEC;

DATA;
#1 = COORDINATED_UNIVERSAL_TIME_OFFSET ( 1, 0, .AHEAD. ) ;
#2 = FACE_OUTER_BOUND ( 'NONE', #161, .T. ) ;
#3 = ADVANCED_FACE ( 'NONE', ( #2, #137 ), #6, .F. ) ;
#4 = CC_DESIGN_APPROVAL ( #112, ( #100 ) ) ;
#5 = CC_DESIGN_PERSON_AND_ORGANIZATION_ASSIGNMENT ( #116, #165, ( #82 ) ) ;
#6 = CYLINDRICAL_SURFACE ( 'NONE', #142, 8.000000000000000000 ) ;
#7 = PERSON_AND_ORGANIZATION_ROLE ( 'design_owner' ) ;
#8 = PERSON_AND_ORGANIZATION ( #31, #55 ) ;
#9 = CARTESIAN_POINT ( 'NONE',  ( -3.420665156717565484E-30, 1.199807826129485429E-31, -9.797174393178823685E-16 ) ) ;
#10 = CALENDAR_DATE ( 2021, 6, 12 ) ;
#11 = DIRECTION ( 'NONE',  ( -3.491481338843133355E-15, 1.224646799147352961E-16, -1.000000000000000000 ) ) ;
#12 = VERTEX_POINT ( 'NONE', #157 ) ;
#13 = DIRECTION ( 'NONE',  ( -3.491481338843133355E-15, 1.224646799147352961E-16, -1.000000000000000000 ) ) ;
#14 = PRODUCT_RELATED_PRODUCT_CATEGORY ( 'detail', '', ( #28 ) ) ;
#15 = APPROVAL_DATE_TIME ( #110, #19 ) ;
#16 = FACE_OUTER_BOUND ( 'NONE', #33, .T. ) ;
#17 = APPROVAL_PERSON_ORGANIZATION ( #113, #134, #87 ) ;
#18 = APPROVAL_STATUS ( 'not_yet_approved' ) ;
#19 = APPROVAL ( #18, 'UNSPECIFIED' ) ;
#20 = EDGE_LOOP ( 'NONE', ( #125 ) ) ;
#21 = DIRECTION ( 'NONE',  ( 0.0000000000000000000, 0.0000000000000000000, 1.000000000000000000 ) ) ;
#22 = DIRECTION ( 'NONE',  ( -3.491481338843133355E-15, 1.224646799147352961E-16, -1.000000000000000000 ) ) ;
#23 = DATE_AND_TIME ( #128, #93 ) ;
#24 = CALENDAR_DATE ( 2021, 6, 12 ) ;
#25 = DIRECTION ( 'NONE',  ( 3.491481338843133355E-15, -1.224646799147352961E-16, 1.000000000000000000 ) ) ;
#26 = LOCAL_TIME ( 13, 58, 57.00000000000000000, #118 ) ;
#27 = CIRCLE ( 'NONE', #135, 8.000000000000000000 ) ;
#28 = PRODUCT ( '3433', '3433', '', ( #115 ) ) ;
#29 = CARTESIAN_POINT ( 'NONE',  ( 6.842277657836020854E-46, 8.000000000000000000, 0.0000000000000000000 ) ) ;
#30 = AXIS2_PLACEMENT_3D ( 'NONE', #138, #25, #108 ) ;
#31 = PERSON ( 'UNSPECIFIED', 'UNSPECIFIED', 'UNSPECIFIED', ('UNSPECIFIED'), ('UNSPECIFIED'), ('UNSPECIFIED') ) ;
#32 = ADVANCED_FACE ( 'NONE', ( #16, #50 ), #152, .T. ) ;
#33 = EDGE_LOOP ( 'NONE', ( #111 ) ) ;
#34 = DIRECTION ( 'NONE',  ( 4.157563054550223109E-31, 1.000000000000000000, 1.239088197126290817E-16 ) ) ;
#35 = CC_DESIGN_PERSON_AND_ORGANIZATION_ASSIGNMENT ( #104, #154, ( #82 ) ) ;
#36 = DIRECTION ( 'NONE',  ( -3.491481338843133355E-15, 1.224646799147352961E-16, -1.000000000000000000 ) ) ;
#37 = DATE_AND_TIME ( #24, #155 ) ;
#38 = LOCAL_TIME ( 13, 58, 57.00000000000000000, #1 ) ;
#39 = FACE_BOUND ( 'NONE', #126, .T. ) ;
#40 = SECURITY_CLASSIFICATION_LEVEL ( 'unclassified' ) ;
#41 = AXIS2_PLACEMENT_3D ( 'NONE', #85, #21, #75 ) ;
#42 = EDGE_CURVE ( 'NONE', #131, #131, #95, .T. ) ;
#43 = EDGE_CURVE ( 'NONE', #12, #12, #60, .T. ) ;
#44 = APPROVAL_ROLE ( '' ) ;
#45 = ADVANCED_FACE ( 'NONE', ( #39, #88 ), #59, .T. ) ;
#46 = CARTESIAN_POINT ( 'NONE',  ( 0.0000000000000000000, 0.0000000000000000000, 0.0000000000000000000 ) ) ;
#47 = EDGE_CURVE ( 'NONE', #69, #69, #27, .T. ) ;
#48 = DATE_TIME_ROLE ( 'creation_date' ) ;
#49 = DESIGN_CONTEXT ( 'detailed design', #76, 'design' ) ;
#50 = FACE_OUTER_BOUND ( 'NONE', #20, .T. ) ;
#51 = CC_DESIGN_APPROVAL ( #19, ( #103 ) ) ;
#52 = APPLICATION_PROTOCOL_DEFINITION ( 'international standard', 'config_control_design', 1994, #91 ) ;
#53 = PERSON_AND_ORGANIZATION ( #31, #55 ) ;
#54 = CARTESIAN_POINT ( 'NONE',  ( 6.284666409917636095E-15, -2.204364238465234097E-16, 1.799999999999998934 ) ) ;
#55 = ORGANIZATION ( 'UNSPECIFIED', 'UNSPECIFIED', '' ) ;
#56 =( NAMED_UNIT ( * ) PLANE_ANGLE_UNIT ( ) SI_UNIT ( $, .RADIAN. ) );
#57 = CC_DESIGN_APPROVAL ( #134, ( #82 ) ) ;
#58 = SHAPE_DEFINITION_REPRESENTATION ( #168, #102 ) ;
#59 = PLANE ( 'NONE',  #30 ) ;
#60 = CIRCLE ( 'NONE', #97, 31.50000000000000000 ) ;
#61 = EDGE_LOOP ( 'NONE', ( #84 ) ) ;
#62 = PERSON_AND_ORGANIZATION_ROLE ( 'creator' ) ;
#63 = DIRECTION ( 'NONE',  ( -3.491481338843133355E-15, 1.224646799147352961E-16, -1.000000000000000000 ) ) ;
#64 = APPROVAL_STATUS ( 'not_yet_approved' ) ;
#65 = EDGE_LOOP ( 'NONE', ( #149 ) ) ;
#66 = COORDINATED_UNIVERSAL_TIME_OFFSET ( 1, 0, .AHEAD. ) ;
#67 = PERSON_AND_ORGANIZATION_ROLE ( 'classification_officer' ) ;
#68 = CC_DESIGN_DATE_AND_TIME_ASSIGNMENT ( #139, #166, ( #103 ) ) ;
#69 = VERTEX_POINT ( 'NONE', #167 ) ;
#70 = APPROVAL_PERSON_ORGANIZATION ( #53, #19, #44 ) ;
#71 =( LENGTH_UNIT ( ) NAMED_UNIT ( * ) SI_UNIT ( .MILLI., .METRE. ) );
#72 = ORIENTED_EDGE ( 'NONE', *, *, #43, .F. ) ;
#73 = APPROVAL_DATE_TIME ( #90, #134 ) ;
#74 = ORIENTED_EDGE ( 'NONE', *, *, #47, .T. ) ;
#75 = DIRECTION ( 'NONE',  ( 1.000000000000000000, 0.0000000000000000000, 0.0000000000000000000 ) ) ;
#76 = APPLICATION_CONTEXT ( 'configuration controlled 3d designs of mechanical parts and assemblies' ) ;
#77 = PERSON_AND_ORGANIZATION ( #31, #55 ) ;
#78 = FACE_OUTER_BOUND ( 'NONE', #65, .T. ) ;
#79 = CARTESIAN_POINT ( 'NONE',  ( -5.024101948928925356E-30, 8.000000000000000000, -1.438959988998139766E-15 ) ) ;
#80 = CALENDAR_DATE ( 2021, 6, 12 ) ;
#81 = ORIENTED_EDGE ( 'NONE', *, *, #169, .F. ) ;
#82 = PRODUCT_DEFINITION_FORMATION_WITH_SPECIFIED_SOURCE ( 'ANY', '', #28, .NOT_KNOWN. ) ;
#83 = APPLICATION_PROTOCOL_DEFINITION ( 'international standard', 'config_control_design', 1994, #76 ) ;
#84 = ORIENTED_EDGE ( 'NONE', *, *, #47, .F. ) ;
#85 = CARTESIAN_POINT ( 'NONE',  ( 0.0000000000000000000, 0.0000000000000000000, 0.0000000000000000000 ) ) ;
#86 = CARTESIAN_POINT ( 'NONE',  ( 6.284666409917626629E-15, -2.204364238465230645E-16, 1.799999999999996048 ) ) ;
#87 = APPROVAL_ROLE ( '' ) ;
#88 = FACE_OUTER_BOUND ( 'NONE', #123, .T. ) ;
#89 = CLOSED_SHELL ( 'NONE', ( #107, #32, #45, #3 ) ) ;
#90 = DATE_AND_TIME ( #10, #132 ) ;
#91 = APPLICATION_CONTEXT ( 'configuration controlled 3d designs of mechanical parts and assemblies' ) ;
#92 = PLANE ( 'NONE',  #127 ) ;
#93 = LOCAL_TIME ( 13, 58, 57.00000000000000000, #151 ) ;
#94 = CC_DESIGN_PERSON_AND_ORGANIZATION_ASSIGNMENT ( #143, #67, ( #103 ) ) ;
#95 = CIRCLE ( 'NONE', #119, 31.50000000000000000 ) ;
#96 = DIRECTION ( 'NONE',  ( 4.275831445896957731E-31, 1.000000000000000000, 1.224646799147352961E-16 ) ) ;
#97 = AXIS2_PLACEMENT_3D ( 'NONE', #86, #22, #34 ) ;
#98 = CALENDAR_DATE ( 2021, 6, 12 ) ;
#99 = DIRECTION ( 'NONE',  ( -3.491481338843133355E-15, 1.224646799147352961E-16, -1.000000000000000000 ) ) ;
#100 = PRODUCT_DEFINITION ( 'UNKNOWN', '', #82, #49 ) ;
#101 = APPROVAL_DATE_TIME ( #37, #112 ) ;
#102 = ADVANCED_BREP_SHAPE_REPRESENTATION ( '3433', ( #153, #41 ), #121 ) ;
#103 = SECURITY_CLASSIFICATION ( '', '', #40 ) ;
#104 = PERSON_AND_ORGANIZATION ( #31, #55 ) ;
#105 = CC_DESIGN_DATE_AND_TIME_ASSIGNMENT ( #23, #48, ( #100 ) ) ;
#106 = AXIS2_PLACEMENT_3D ( 'NONE', #46, #99, #96 ) ;
#107 = ADVANCED_FACE ( 'NONE', ( #78, #130 ), #92, .T. ) ;
#108 = DIRECTION ( 'NONE',  ( -4.275831445896957731E-31, -1.000000000000000000, -1.224646799147352961E-16 ) ) ;
#109 = DIRECTION ( 'NONE',  ( -3.491481338843133355E-15, 1.224646799147352961E-16, -1.000000000000000000 ) ) ;
#110 = DATE_AND_TIME ( #80, #38 ) ;
#111 = ORIENTED_EDGE ( 'NONE', *, *, #43, .T. ) ;
#112 = APPROVAL ( #64, 'UNSPECIFIED' ) ;
#113 = PERSON_AND_ORGANIZATION ( #31, #55 ) ;
#114 = DIRECTION ( 'NONE',  ( 4.275831445896957731E-31, 1.000000000000000000, 1.224646799147352961E-16 ) ) ;
#115 = MECHANICAL_CONTEXT ( 'NONE', #91, 'mechanical' ) ;
#116 = PERSON_AND_ORGANIZATION ( #31, #55 ) ;
#117 = CARTESIAN_POINT ( 'NONE',  ( 2.736911063134408342E-45, 31.50000000000000000, 0.0000000000000000000 ) ) ;
#118 = COORDINATED_UNIVERSAL_TIME_OFFSET ( 1, 0, .AHEAD. ) ;
#119 = AXIS2_PLACEMENT_3D ( 'NONE', #150, #36, #148 ) ;
#120 = DIRECTION ( 'NONE',  ( 4.275831445896957731E-31, 1.000000000000000000, 1.224646799147352961E-16 ) ) ;
#121 =( GEOMETRIC_REPRESENTATION_CONTEXT ( 3 ) GLOBAL_UNCERTAINTY_ASSIGNED_CONTEXT ( ( #156 ) ) GLOBAL_UNIT_ASSIGNED_CONTEXT ( ( #71, #56, #160 ) ) REPRESENTATION_CONTEXT ( 'NONE', 'WORKASPACE' ) );
#122 = CIRCLE ( 'NONE', #159, 8.000000000000000000 ) ;
#123 = EDGE_LOOP ( 'NONE', ( #72 ) ) ;
#124 = CC_DESIGN_PERSON_AND_ORGANIZATION_ASSIGNMENT ( #77, #62, ( #100 ) ) ;
#125 = ORIENTED_EDGE ( 'NONE', *, *, #42, .F. ) ;
#126 = EDGE_LOOP ( 'NONE', ( #74 ) ) ;
#127 = AXIS2_PLACEMENT_3D ( 'NONE', #79, #11, #133 ) ;
#128 = CALENDAR_DATE ( 2021, 6, 12 ) ;
#129 = APPROVAL_STATUS ( 'not_yet_approved' ) ;
#130 = FACE_BOUND ( 'NONE', #147, .T. ) ;
#131 = VERTEX_POINT ( 'NONE', #117 ) ;
#132 = LOCAL_TIME ( 13, 58, 57.00000000000000000, #66 ) ;
#133 = DIRECTION ( 'NONE',  ( 4.275831445896957731E-31, 1.000000000000000000, 1.224646799147352961E-16 ) ) ;
#134 = APPROVAL ( #129, 'UNSPECIFIED' ) ;
#135 = AXIS2_PLACEMENT_3D ( 'NONE', #54, #109, #144 ) ;
#136 = CC_DESIGN_SECURITY_CLASSIFICATION ( #103, ( #82 ) ) ;
#137 = FACE_OUTER_BOUND ( 'NONE', #61, .T. ) ;
#138 = CARTESIAN_POINT ( 'NONE',  ( 6.284666409917634517E-15, 8.000000000000000000, 1.799999999999998490 ) ) ;
#139 = DATE_AND_TIME ( #98, #26 ) ;
#140 = PERSON_AND_ORGANIZATION ( #31, #55 ) ;
#141 = APPROVAL_ROLE ( '' ) ;
#142 = AXIS2_PLACEMENT_3D ( 'NONE', #162, #63, #114 ) ;
#143 = PERSON_AND_ORGANIZATION ( #31, #55 ) ;
#144 = DIRECTION ( 'NONE',  ( 3.851859888774471706E-31, 1.000000000000000000, 1.355252715606880543E-16 ) ) ;
#145 = CC_DESIGN_PERSON_AND_ORGANIZATION_ASSIGNMENT ( #8, #7, ( #28 ) ) ;
#146 = APPROVAL_PERSON_ORGANIZATION ( #140, #112, #141 ) ;
#147 = EDGE_LOOP ( 'NONE', ( #81 ) ) ;
#148 = DIRECTION ( 'NONE',  ( 4.275831445896957731E-31, 1.000000000000000000, 1.224646799147352961E-16 ) ) ;
#149 = ORIENTED_EDGE ( 'NONE', *, *, #42, .T. ) ;
#150 = CARTESIAN_POINT ( 'NONE',  ( -1.346886905457541479E-29, 4.724243315384849823E-31, -3.857637417314161900E-15 ) ) ;
#151 = COORDINATED_UNIVERSAL_TIME_OFFSET ( 1, 0, .AHEAD. ) ;
#152 = CYLINDRICAL_SURFACE ( 'NONE', #106, 31.50000000000000000 ) ;
#153 = MANIFOLD_SOLID_BREP ( 'Corps-Déplacer/Copier1', #89 ) ;
#154 = PERSON_AND_ORGANIZATION_ROLE ( 'design_supplier' ) ;
#155 = LOCAL_TIME ( 13, 58, 57.00000000000000000, #163 ) ;
#156 = UNCERTAINTY_MEASURE_WITH_UNIT (LENGTH_MEASURE( 1.000000000000000082E-05 ), #71, 'distance_accuracy_value', 'NONE');
#157 = CARTESIAN_POINT ( 'NONE',  ( 6.284666409917639251E-15, 31.50000000000000000, 1.800000000000000044 ) ) ;
#158 = VERTEX_POINT ( 'NONE', #29 ) ;
#159 = AXIS2_PLACEMENT_3D ( 'NONE', #9, #13, #120 ) ;
#160 =( NAMED_UNIT ( * ) SI_UNIT ( $, .STERADIAN. ) SOLID_ANGLE_UNIT ( ) );
#161 = EDGE_LOOP ( 'NONE', ( #164 ) ) ;
#162 = CARTESIAN_POINT ( 'NONE',  ( 0.0000000000000000000, 0.0000000000000000000, 0.0000000000000000000 ) ) ;
#163 = COORDINATED_UNIVERSAL_TIME_OFFSET ( 1, 0, .AHEAD. ) ;
#164 = ORIENTED_EDGE ( 'NONE', *, *, #169, .T. ) ;
#165 = PERSON_AND_ORGANIZATION_ROLE ( 'creator' ) ;
#166 = DATE_TIME_ROLE ( 'classification_date' ) ;
#167 = CARTESIAN_POINT ( 'NONE',  ( 6.284666409917639251E-15, 8.000000000000000000, 1.800000000000000044 ) ) ;
#168 = PRODUCT_DEFINITION_SHAPE ( 'NONE', 'NONE',  #100 ) ;
#169 = EDGE_CURVE ( 'NONE', #158, #158, #122, .T. ) ;
ENDSEC;
END-ISO-10303-21;
