ISO-10303-21;
HEADER;
FILE_DESCRIPTION (( 'STEP AP203' ),
    '1' );
FILE_NAME ('3432.step',
    '2021-12-06T12:58:57',
    ( '' ),
    ( '' ),
    'SwSTEP 2.0',
    'SolidWorks 2019',
    '' );
FILE_SCHEMA (( 'CONFIG_CONTROL_DESIGN' ));
ENDSEC;

DATA;
#1 = EDGE_LOOP ( 'NONE', ( #14 ) ) ;
#2 = PLANE ( 'NONE',  #54 ) ;
#3 = FACE_OUTER_BOUND ( 'NONE', #32, .T. ) ;
#4 = CARTESIAN_POINT ( 'NONE',  ( -2.615802766901668733E-30, 7.016177253144745997E-32, -7.491956888901454914E-16 ) ) ;
#5 = CARTESIAN_POINT ( 'NONE',  ( -3.841960313886826137E-30, 8.000000000000000000, -1.100381168057401160E-15 ) ) ;
#6 = DATE_AND_TIME ( #12, #120 ) ;
#7 = APPROVAL ( #139, 'UNSPECIFIED' ) ;
#8 = ORIENTED_EDGE ( 'NONE', *, *, #39, .T. ) ;
#9 = DATE_TIME_ROLE ( 'creation_date' ) ;
#10 = APPLICATION_PROTOCOL_DEFINITION ( 'international standard', 'config_control_design', 1994, #161 ) ;
#11 = PRODUCT ( '3432', '3432', '', ( #20 ) ) ;
#12 = CALENDAR_DATE ( 2021, 6, 12 ) ;
#13 = ORGANIZATION ( 'UNSPECIFIED', 'UNSPECIFIED', '' ) ;
#14 = ORIENTED_EDGE ( 'NONE', *, *, #140, .F. ) ;
#15 = LOCAL_TIME ( 13, 58, 57.00000000000000000, #62 ) ;
#16 = DIRECTION ( 'NONE',  ( 3.491481338843133355E-15, -9.364946111126818643E-17, 1.000000000000000000 ) ) ;
#17 = DIRECTION ( 'NONE',  ( 3.269753458627085916E-31, 1.000000000000000000, 9.364946111126818643E-17 ) ) ;
#18 =( NAMED_UNIT ( * ) PLANE_ANGLE_UNIT ( ) SI_UNIT ( $, .RADIAN. ) );
#19 = DATE_AND_TIME ( #36, #146 ) ;
#20 = MECHANICAL_CONTEXT ( 'NONE', #161, 'mechanical' ) ;
#21 = CC_DESIGN_APPROVAL ( #71, ( #124 ) ) ;
#22 = DATE_AND_TIME ( #76, #15 ) ;
#23 = DIRECTION ( 'NONE',  ( 0.0000000000000000000, 0.0000000000000000000, 1.000000000000000000 ) ) ;
#24 = PERSON ( 'UNSPECIFIED', 'UNSPECIFIED', 'UNSPECIFIED', ('UNSPECIFIED'), ('UNSPECIFIED'), ('UNSPECIFIED') ) ;
#25 = CIRCLE ( 'NONE', #104, 8.000000000000000000 ) ;
#26 = CC_DESIGN_PERSON_AND_ORGANIZATION_ASSIGNMENT ( #115, #165, ( #11 ) ) ;
#27 = ADVANCED_FACE ( 'NONE', ( #125, #3 ), #158, .T. ) ;
#28 = CC_DESIGN_PERSON_AND_ORGANIZATION_ASSIGNMENT ( #154, #77, ( #87 ) ) ;
#29 = VERTEX_POINT ( 'NONE', #70 ) ;
#30 = CARTESIAN_POINT ( 'NONE',  ( 5.935518276033325915E-15, 8.000000000000000000, 1.699999999999999956 ) ) ;
#31 = FACE_OUTER_BOUND ( 'NONE', #1, .T. ) ;
#32 = EDGE_LOOP ( 'NONE', ( #72 ) ) ;
#33 = CARTESIAN_POINT ( 'NONE',  ( 0.0000000000000000000, 0.0000000000000000000, 0.0000000000000000000 ) ) ;
#34 = PERSON_AND_ORGANIZATION ( #24, #13 ) ;
#35 = PERSON_AND_ORGANIZATION ( #24, #13 ) ;
#36 = CALENDAR_DATE ( 2021, 6, 12 ) ;
#37 = CC_DESIGN_APPROVAL ( #7, ( #85 ) ) ;
#38 = DATE_AND_TIME ( #129, #110 ) ;
#39 = EDGE_CURVE ( 'NONE', #40, #40, #93, .T. ) ;
#40 = VERTEX_POINT ( 'NONE', #91 ) ;
#41 = DIRECTION ( 'NONE',  ( -3.491481338843133355E-15, 9.364946111126818643E-17, -1.000000000000000000 ) ) ;
#42 = FACE_OUTER_BOUND ( 'NONE', #119, .T. ) ;
#43 = EDGE_LOOP ( 'NONE', ( #8 ) ) ;
#44 = DATE_AND_TIME ( #138, #79 ) ;
#45 = COORDINATED_UNIVERSAL_TIME_OFFSET ( 1, 0, .AHEAD. ) ;
#46 = PERSON_AND_ORGANIZATION ( #24, #13 ) ;
#47 = COORDINATED_UNIVERSAL_TIME_OFFSET ( 1, 0, .AHEAD. ) ;
#48 = ADVANCED_FACE ( 'NONE', ( #69, #55 ), #2, .T. ) ;
#49 = CLOSED_SHELL ( 'NONE', ( #48, #131, #27, #53 ) ) ;
#50 = CC_DESIGN_DATE_AND_TIME_ASSIGNMENT ( #44, #9, ( #124 ) ) ;
#51 = EDGE_CURVE ( 'NONE', #29, #29, #80, .T. ) ;
#52 = FACE_OUTER_BOUND ( 'NONE', #162, .T. ) ;
#53 = ADVANCED_FACE ( 'NONE', ( #42, #31 ), #147, .F. ) ;
#54 = AXIS2_PLACEMENT_3D ( 'NONE', #5, #59, #92 ) ;
#55 = FACE_BOUND ( 'NONE', #168, .T. ) ;
#56 = DIRECTION ( 'NONE',  ( 3.269753458627085916E-31, 1.000000000000000000, 9.364946111126818643E-17 ) ) ;
#57 = PRODUCT_DEFINITION_SHAPE ( 'NONE', 'NONE',  #124 ) ;
#58 = ORIENTED_EDGE ( 'NONE', *, *, #39, .F. ) ;
#59 = DIRECTION ( 'NONE',  ( -3.491481338843133355E-15, 9.364946111126818643E-17, -1.000000000000000000 ) ) ;
#60 = AXIS2_PLACEMENT_3D ( 'NONE', #33, #112, #17 ) ;
#61 = APPROVAL_ROLE ( '' ) ;
#62 = COORDINATED_UNIVERSAL_TIME_OFFSET ( 1, 0, .AHEAD. ) ;
#63 = PERSON_AND_ORGANIZATION ( #24, #13 ) ;
#64 = APPROVAL_STATUS ( 'not_yet_approved' ) ;
#65 = APPROVAL_DATE_TIME ( #19, #7 ) ;
#66 = PRODUCT_RELATED_PRODUCT_CATEGORY ( 'detail', '', ( #11 ) ) ;
#67 = CC_DESIGN_PERSON_AND_ORGANIZATION_ASSIGNMENT ( #78, #101, ( #87 ) ) ;
#68 = CC_DESIGN_SECURITY_CLASSIFICATION ( #85, ( #87 ) ) ;
#69 = FACE_OUTER_BOUND ( 'NONE', #43, .T. ) ;
#70 = CARTESIAN_POINT ( 'NONE',  ( 0.0000000000000000000, 8.000000000000000000, 0.0000000000000000000 ) ) ;
#71 = APPROVAL ( #64, 'UNSPECIFIED' ) ;
#72 = ORIENTED_EDGE ( 'NONE', *, *, #169, .F. ) ;
#73 = CARTESIAN_POINT ( 'NONE',  ( -1.029972339467532206E-29, 2.762619793425744078E-31, -2.949958025004948008E-15 ) ) ;
#74 = DIRECTION ( 'NONE',  ( -3.269753458627085916E-31, -1.000000000000000000, -9.364946111126818643E-17 ) ) ;
#75 = CARTESIAN_POINT ( 'NONE',  ( 0.0000000000000000000, 0.0000000000000000000, 0.0000000000000000000 ) ) ;
#76 = CALENDAR_DATE ( 2021, 6, 12 ) ;
#77 = PERSON_AND_ORGANIZATION_ROLE ( 'design_supplier' ) ;
#78 = PERSON_AND_ORGANIZATION ( #24, #13 ) ;
#79 = LOCAL_TIME ( 13, 58, 57.00000000000000000, #47 ) ;
#80 = CIRCLE ( 'NONE', #103, 8.000000000000000000 ) ;
#81 = AXIS2_PLACEMENT_3D ( 'NONE', #75, #23, #130 ) ;
#82 = DIRECTION ( 'NONE',  ( -3.491481338843133355E-15, 9.364946111126818643E-17, -1.000000000000000000 ) ) ;
#83 = VERTEX_POINT ( 'NONE', #30 ) ;
#84 =( LENGTH_UNIT ( ) NAMED_UNIT ( * ) SI_UNIT ( .MILLI., .METRE. ) );
#85 = SECURITY_CLASSIFICATION ( '', '', #151 ) ;
#86 = EDGE_LOOP ( 'NONE', ( #58 ) ) ;
#87 = PRODUCT_DEFINITION_FORMATION_WITH_SPECIFIED_SOURCE ( 'ANY', '', #11, .NOT_KNOWN. ) ;
#88 = APPROVAL_ROLE ( '' ) ;
#89 = CC_DESIGN_DATE_AND_TIME_ASSIGNMENT ( #38, #90, ( #85 ) ) ;
#90 = DATE_TIME_ROLE ( 'classification_date' ) ;
#91 = CARTESIAN_POINT ( 'NONE',  ( -1.368455531567204171E-45, 31.50000000000000000, 0.0000000000000000000 ) ) ;
#92 = DIRECTION ( 'NONE',  ( 3.269753458627085916E-31, 1.000000000000000000, 9.364946111126818643E-17 ) ) ;
#93 = CIRCLE ( 'NONE', #159, 31.50000000000000000 ) ;
#94 =( GEOMETRIC_REPRESENTATION_CONTEXT ( 3 ) GLOBAL_UNCERTAINTY_ASSIGNED_CONTEXT ( ( #142 ) ) GLOBAL_UNIT_ASSIGNED_CONTEXT ( ( #84, #18, #160 ) ) REPRESENTATION_CONTEXT ( 'NONE', 'WORKASPACE' ) );
#95 = DIRECTION ( 'NONE',  ( 2.888894916580853780E-31, 1.000000000000000000, 8.131516293641283255E-17 ) ) ;
#96 = APPLICATION_CONTEXT ( 'configuration controlled 3d designs of mechanical parts and assemblies' ) ;
#97 = DIRECTION ( 'NONE',  ( -3.491481338843133355E-15, 9.364946111126818643E-17, -1.000000000000000000 ) ) ;
#98 = APPROVAL ( #116, 'UNSPECIFIED' ) ;
#99 = MANIFOLD_SOLID_BREP ( 'Corps-Déplacer/Copier1', #49 ) ;
#100 = CIRCLE ( 'NONE', #156, 31.50000000000000000 ) ;
#101 = PERSON_AND_ORGANIZATION_ROLE ( 'creator' ) ;
#102 = COORDINATED_UNIVERSAL_TIME_OFFSET ( 1, 0, .AHEAD. ) ;
#103 = AXIS2_PLACEMENT_3D ( 'NONE', #4, #143, #137 ) ;
#104 = AXIS2_PLACEMENT_3D ( 'NONE', #111, #97, #95 ) ;
#105 = ADVANCED_BREP_SHAPE_REPRESENTATION ( '3432', ( #99, #81 ), #94 ) ;
#106 = APPROVAL_DATE_TIME ( #6, #98 ) ;
#107 = DESIGN_CONTEXT ( 'detailed design', #96, 'design' ) ;
#108 = CARTESIAN_POINT ( 'NONE',  ( 5.935518276033315660E-15, -1.592040838891556137E-16, 1.699999999999996847 ) ) ;
#109 = CARTESIAN_POINT ( 'NONE',  ( 0.0000000000000000000, 0.0000000000000000000, 0.0000000000000000000 ) ) ;
#110 = LOCAL_TIME ( 13, 58, 57.00000000000000000, #102 ) ;
#111 = CARTESIAN_POINT ( 'NONE',  ( 5.935518276033324337E-15, -1.592040838891558602E-16, 1.699999999999999289 ) ) ;
#112 = DIRECTION ( 'NONE',  ( -3.491481338843133355E-15, 9.364946111126818643E-17, -1.000000000000000000 ) ) ;
#113 = DIRECTION ( 'NONE',  ( -3.491481338843133355E-15, 9.364946111126818643E-17, -1.000000000000000000 ) ) ;
#114 = PERSON_AND_ORGANIZATION_ROLE ( 'classification_officer' ) ;
#115 = PERSON_AND_ORGANIZATION ( #24, #13 ) ;
#116 = APPROVAL_STATUS ( 'not_yet_approved' ) ;
#117 = APPROVAL_DATE_TIME ( #22, #71 ) ;
#118 = CC_DESIGN_APPROVAL ( #98, ( #87 ) ) ;
#119 = EDGE_LOOP ( 'NONE', ( #126 ) ) ;
#120 = LOCAL_TIME ( 13, 58, 57.00000000000000000, #45 ) ;
#121 = CARTESIAN_POINT ( 'NONE',  ( 5.935518276033322760E-15, 8.000000000000000000, 1.699999999999998845 ) ) ;
#122 = ORIENTED_EDGE ( 'NONE', *, *, #51, .F. ) ;
#123 = DIRECTION ( 'NONE',  ( 3.179312924067818007E-31, 1.000000000000000000, 9.637352644315595243E-17 ) ) ;
#124 = PRODUCT_DEFINITION ( 'UNKNOWN', '', #87, #107 ) ;
#125 = FACE_BOUND ( 'NONE', #132, .T. ) ;
#126 = ORIENTED_EDGE ( 'NONE', *, *, #51, .T. ) ;
#127 = DIRECTION ( 'NONE',  ( 3.269753458627085916E-31, 1.000000000000000000, 9.364946111126818643E-17 ) ) ;
#128 = APPROVAL_ROLE ( '' ) ;
#129 = CALENDAR_DATE ( 2021, 6, 12 ) ;
#130 = DIRECTION ( 'NONE',  ( 1.000000000000000000, 0.0000000000000000000, 0.0000000000000000000 ) ) ;
#131 = ADVANCED_FACE ( 'NONE', ( #52, #133 ), #135, .T. ) ;
#132 = EDGE_LOOP ( 'NONE', ( #148 ) ) ;
#133 = FACE_OUTER_BOUND ( 'NONE', #86, .T. ) ;
#134 = APPROVAL_PERSON_ORGANIZATION ( #46, #71, #88 ) ;
#135 = CYLINDRICAL_SURFACE ( 'NONE', #60, 31.50000000000000000 ) ;
#136 = VERTEX_POINT ( 'NONE', #149 ) ;
#137 = DIRECTION ( 'NONE',  ( 3.269753458627085916E-31, 1.000000000000000000, 9.364946111126818643E-17 ) ) ;
#138 = CALENDAR_DATE ( 2021, 6, 12 ) ;
#139 = APPROVAL_STATUS ( 'not_yet_approved' ) ;
#140 = EDGE_CURVE ( 'NONE', #83, #83, #25, .T. ) ;
#141 = APPROVAL_PERSON_ORGANIZATION ( #63, #7, #61 ) ;
#142 = UNCERTAINTY_MEASURE_WITH_UNIT (LENGTH_MEASURE( 1.000000000000000082E-05 ), #84, 'distance_accuracy_value', 'NONE');
#143 = DIRECTION ( 'NONE',  ( -3.491481338843133355E-15, 9.364946111126818643E-17, -1.000000000000000000 ) ) ;
#144 = AXIS2_PLACEMENT_3D ( 'NONE', #121, #16, #74 ) ;
#145 = ORIENTED_EDGE ( 'NONE', *, *, #169, .T. ) ;
#146 = LOCAL_TIME ( 13, 58, 57.00000000000000000, #152 ) ;
#147 = CYLINDRICAL_SURFACE ( 'NONE', #167, 8.000000000000000000 ) ;
#148 = ORIENTED_EDGE ( 'NONE', *, *, #140, .T. ) ;
#149 = CARTESIAN_POINT ( 'NONE',  ( 5.935518276033325915E-15, 31.50000000000000000, 1.699999999999999956 ) ) ;
#150 = PERSON_AND_ORGANIZATION_ROLE ( 'creator' ) ;
#151 = SECURITY_CLASSIFICATION_LEVEL ( 'unclassified' ) ;
#152 = COORDINATED_UNIVERSAL_TIME_OFFSET ( 1, 0, .AHEAD. ) ;
#153 = APPROVAL_PERSON_ORGANIZATION ( #35, #98, #128 ) ;
#154 = PERSON_AND_ORGANIZATION ( #24, #13 ) ;
#155 = PERSON_AND_ORGANIZATION ( #24, #13 ) ;
#156 = AXIS2_PLACEMENT_3D ( 'NONE', #108, #113, #123 ) ;
#157 = CC_DESIGN_PERSON_AND_ORGANIZATION_ASSIGNMENT ( #34, #150, ( #124 ) ) ;
#158 = PLANE ( 'NONE',  #144 ) ;
#159 = AXIS2_PLACEMENT_3D ( 'NONE', #73, #41, #127 ) ;
#160 =( NAMED_UNIT ( * ) SI_UNIT ( $, .STERADIAN. ) SOLID_ANGLE_UNIT ( ) );
#161 = APPLICATION_CONTEXT ( 'configuration controlled 3d designs of mechanical parts and assemblies' ) ;
#162 = EDGE_LOOP ( 'NONE', ( #145 ) ) ;
#163 = APPLICATION_PROTOCOL_DEFINITION ( 'international standard', 'config_control_design', 1994, #96 ) ;
#164 = CC_DESIGN_PERSON_AND_ORGANIZATION_ASSIGNMENT ( #155, #114, ( #85 ) ) ;
#165 = PERSON_AND_ORGANIZATION_ROLE ( 'design_owner' ) ;
#166 = SHAPE_DEFINITION_REPRESENTATION ( #57, #105 ) ;
#167 = AXIS2_PLACEMENT_3D ( 'NONE', #109, #82, #56 ) ;
#168 = EDGE_LOOP ( 'NONE', ( #122 ) ) ;
#169 = EDGE_CURVE ( 'NONE', #136, #136, #100, .T. ) ;
ENDSEC;
END-ISO-10303-21;
