ISO-10303-21;
HEADER;
FILE_DESCRIPTION (( 'STEP AP203' ),
    '1' );
FILE_NAME ('3429.step',
    '2021-12-06T12:58:56',
    ( '' ),
    ( '' ),
    'SwSTEP 2.0',
    'SolidWorks 2019',
    '' );
FILE_SCHEMA (( 'CONFIG_CONTROL_DESIGN' ));
ENDSEC;

DATA;
#1 = APPROVAL_ROLE ( '' ) ;
#2 = CIRCLE ( 'NONE', #93, 6.500000000000000000 ) ;
#3 = ORGANIZATION ( 'UNSPECIFIED', 'UNSPECIFIED', '' ) ;
#4 = CC_DESIGN_DATE_AND_TIME_ASSIGNMENT ( #120, #72, ( #123 ) ) ;
#5 = ORIENTED_EDGE ( 'NONE', *, *, #15, .T. ) ;
#6 = CYLINDRICAL_SURFACE ( 'NONE', #32, 25.00000000000000000 ) ;
#7 = CARTESIAN_POINT ( 'NONE',  ( -3.955144087454686842E-30, 6.500000000000000000, -1.132798289211301895E-15 ) ) ;
#8 = ORIENTED_EDGE ( 'NONE', *, *, #131, .T. ) ;
#9 = DESIGN_CONTEXT ( 'detailed design', #160, 'design' ) ;
#10 = ORIENTED_EDGE ( 'NONE', *, *, #19, .F. ) ;
#11 = COORDINATED_UNIVERSAL_TIME_OFFSET ( 1, 0, .AHEAD. ) ;
#12 = DIRECTION ( 'NONE',  ( -4.275831445896958607E-31, -1.000000000000000000, -1.224646799147353207E-16 ) ) ;
#13 = LOCAL_TIME ( 13, 58, 56.00000000000000000, #88 ) ;
#14 = CARTESIAN_POINT ( 'NONE',  ( 0.0000000000000000000, 0.0000000000000000000, 0.0000000000000000000 ) ) ;
#15 = EDGE_CURVE ( 'NONE', #104, #104, #20, .T. ) ;
#16 = PERSON_AND_ORGANIZATION ( #44, #3 ) ;
#17 = AXIS2_PLACEMENT_3D ( 'NONE', #105, #87, #42 ) ;
#18 = CC_DESIGN_DATE_AND_TIME_ASSIGNMENT ( #129, #103, ( #29 ) ) ;
#19 = EDGE_CURVE ( 'NONE', #150, #150, #2, .T. ) ;
#20 = CIRCLE ( 'NONE', #106, 6.500000000000000000 ) ;
#21 = CC_DESIGN_APPROVAL ( #46, ( #90 ) ) ;
#22 = FACE_OUTER_BOUND ( 'NONE', #67, .T. ) ;
#23 = ORIENTED_EDGE ( 'NONE', *, *, #19, .T. ) ;
#24 = CC_DESIGN_PERSON_AND_ORGANIZATION_ASSIGNMENT ( #16, #100, ( #29 ) ) ;
#25 = CALENDAR_DATE ( 2021, 6, 12 ) ;
#26 = CALENDAR_DATE ( 2021, 6, 12 ) ;
#27 = CARTESIAN_POINT ( 'NONE',  ( 4.538925740496073362E-15, 25.00000000000000000, 1.300000000000000044 ) ) ;
#28 = APPROVAL_DATE_TIME ( #169, #46 ) ;
#29 = SECURITY_CLASSIFICATION ( '', '', #85 ) ;
#30 = COORDINATED_UNIVERSAL_TIME_OFFSET ( 1, 0, .AHEAD. ) ;
#31 = CALENDAR_DATE ( 2021, 6, 12 ) ;
#32 = AXIS2_PLACEMENT_3D ( 'NONE', #83, #108, #135 ) ;
#33 = LOCAL_TIME ( 13, 58, 56.00000000000000000, #53 ) ;
#34 = ORIENTED_EDGE ( 'NONE', *, *, #131, .F. ) ;
#35 = DIRECTION ( 'NONE',  ( 4.275831445896958607E-31, 1.000000000000000000, 1.224646799147353207E-16 ) ) ;
#36 = COORDINATED_UNIVERSAL_TIME_OFFSET ( 1, 0, .AHEAD. ) ;
#37 = PERSON_AND_ORGANIZATION ( #44, #3 ) ;
#38 = DATE_AND_TIME ( #31, #43 ) ;
#39 = APPROVAL_ROLE ( '' ) ;
#40 = PERSON_AND_ORGANIZATION ( #44, #3 ) ;
#41 = ADVANCED_FACE ( 'NONE', ( #149, #45 ), #6, .T. ) ;
#42 = DIRECTION ( 'NONE',  ( 4.314083075427408311E-31, 1.000000000000000000, 1.214306433183764966E-16 ) ) ;
#43 = LOCAL_TIME ( 13, 58, 56.00000000000000000, #11 ) ;
#44 = PERSON ( 'UNSPECIFIED', 'UNSPECIFIED', 'UNSPECIFIED', ('UNSPECIFIED'), ('UNSPECIFIED'), ('UNSPECIFIED') ) ;
#45 = FACE_OUTER_BOUND ( 'NONE', #159, .T. ) ;
#46 = APPROVAL ( #51, 'UNSPECIFIED' ) ;
#47 = EDGE_LOOP ( 'NONE', ( #10 ) ) ;
#48 =( GEOMETRIC_REPRESENTATION_CONTEXT ( 3 ) GLOBAL_UNCERTAINTY_ASSIGNED_CONTEXT ( ( #134 ) ) GLOBAL_UNIT_ASSIGNED_CONTEXT ( ( #119, #153, #82 ) ) REPRESENTATION_CONTEXT ( 'NONE', 'WORKASPACE' ) );
#49 = CARTESIAN_POINT ( 'NONE',  ( 0.0000000000000000000, 0.0000000000000000000, 0.0000000000000000000 ) ) ;
#50 = ORIENTED_EDGE ( 'NONE', *, *, #142, .F. ) ;
#51 = APPROVAL_STATUS ( 'not_yet_approved' ) ;
#52 = PERSON_AND_ORGANIZATION ( #44, #3 ) ;
#53 = COORDINATED_UNIVERSAL_TIME_OFFSET ( 1, 0, .AHEAD. ) ;
#54 = DIRECTION ( 'NONE',  ( 4.275831445896958607E-31, 1.000000000000000000, 1.224646799147353207E-16 ) ) ;
#55 = DIRECTION ( 'NONE',  ( 0.0000000000000000000, 0.0000000000000000000, 1.000000000000000000 ) ) ;
#56 = PERSON_AND_ORGANIZATION_ROLE ( 'design_supplier' ) ;
#57 = APPROVAL_PERSON_ORGANIZATION ( #101, #132, #39 ) ;
#58 = CC_DESIGN_PERSON_AND_ORGANIZATION_ASSIGNMENT ( #40, #163, ( #90 ) ) ;
#59 = AXIS2_PLACEMENT_3D ( 'NONE', #113, #140, #54 ) ;
#60 = FACE_OUTER_BOUND ( 'NONE', #111, .T. ) ;
#61 = ORIENTED_EDGE ( 'NONE', *, *, #15, .F. ) ;
#62 = DIRECTION ( 'NONE',  ( -3.491481338843133355E-15, 1.224646799147353207E-16, -1.000000000000000000 ) ) ;
#63 = CC_DESIGN_APPROVAL ( #143, ( #29 ) ) ;
#64 = MECHANICAL_CONTEXT ( 'NONE', #127, 'mechanical' ) ;
#65 = CC_DESIGN_APPROVAL ( #132, ( #123 ) ) ;
#66 = CC_DESIGN_PERSON_AND_ORGANIZATION_ASSIGNMENT ( #37, #168, ( #123 ) ) ;
#67 = EDGE_LOOP ( 'NONE', ( #95 ) ) ;
#68 = FACE_BOUND ( 'NONE', #47, .T. ) ;
#69 = EDGE_LOOP ( 'NONE', ( #5 ) ) ;
#70 = EDGE_LOOP ( 'NONE', ( #34 ) ) ;
#71 = CARTESIAN_POINT ( 'NONE',  ( 4.538925740496069418E-15, 6.500000000000000000, 1.299999999999998934 ) ) ;
#72 = DATE_TIME_ROLE ( 'creation_date' ) ;
#73 = PRODUCT_RELATED_PRODUCT_CATEGORY ( 'detail', '', ( #156 ) ) ;
#74 = APPROVAL_DATE_TIME ( #38, #143 ) ;
#75 = PLANE ( 'NONE',  #165 ) ;
#76 = PERSON_AND_ORGANIZATION ( #44, #3 ) ;
#77 = PRODUCT_DEFINITION_SHAPE ( 'NONE', 'NONE',  #123 ) ;
#78 = CC_DESIGN_PERSON_AND_ORGANIZATION_ASSIGNMENT ( #76, #56, ( #90 ) ) ;
#79 = MANIFOLD_SOLID_BREP ( 'Corps-Déplacer/Copier1', #91 ) ;
#80 = AXIS2_PLACEMENT_3D ( 'NONE', #14, #55, #164 ) ;
#81 = DIRECTION ( 'NONE',  ( 4.275831445896958607E-31, 1.000000000000000000, 1.224646799147353207E-16 ) ) ;
#82 =( NAMED_UNIT ( * ) SI_UNIT ( $, .STERADIAN. ) SOLID_ANGLE_UNIT ( ) );
#83 = CARTESIAN_POINT ( 'NONE',  ( 0.0000000000000000000, 0.0000000000000000000, 0.0000000000000000000 ) ) ;
#84 = CALENDAR_DATE ( 2021, 6, 12 ) ;
#85 = SECURITY_CLASSIFICATION_LEVEL ( 'unclassified' ) ;
#86 = CIRCLE ( 'NONE', #17, 25.00000000000000000 ) ;
#87 = DIRECTION ( 'NONE',  ( -3.491481338843133355E-15, 1.224646799147353207E-16, -1.000000000000000000 ) ) ;
#88 = COORDINATED_UNIVERSAL_TIME_OFFSET ( 1, 0, .AHEAD. ) ;
#89 = APPLICATION_PROTOCOL_DEFINITION ( 'international standard', 'config_control_design', 1994, #127 ) ;
#90 = PRODUCT_DEFINITION_FORMATION_WITH_SPECIFIED_SOURCE ( 'ANY', '', #156, .NOT_KNOWN. ) ;
#91 = CLOSED_SHELL ( 'NONE', ( #112, #41, #154, #121 ) ) ;
#92 = LOCAL_TIME ( 13, 58, 56.00000000000000000, #30 ) ;
#93 = AXIS2_PLACEMENT_3D ( 'NONE', #144, #98, #94 ) ;
#94 = DIRECTION ( 'NONE',  ( 4.275831445896958607E-31, 1.000000000000000000, 1.224646799147353207E-16 ) ) ;
#95 = ORIENTED_EDGE ( 'NONE', *, *, #142, .T. ) ;
#96 = DIRECTION ( 'NONE',  ( -3.491481338843133355E-15, 1.224646799147353207E-16, -1.000000000000000000 ) ) ;
#97 = PERSON_AND_ORGANIZATION_ROLE ( 'design_owner' ) ;
#98 = DIRECTION ( 'NONE',  ( -3.491481338843133355E-15, 1.224646799147353207E-16, -1.000000000000000000 ) ) ;
#99 = DATE_AND_TIME ( #25, #13 ) ;
#100 = PERSON_AND_ORGANIZATION_ROLE ( 'classification_officer' ) ;
#101 = PERSON_AND_ORGANIZATION ( #44, #3 ) ;
#102 = VERTEX_POINT ( 'NONE', #27 ) ;
#103 = DATE_TIME_ROLE ( 'classification_date' ) ;
#104 = VERTEX_POINT ( 'NONE', #138 ) ;
#105 = CARTESIAN_POINT ( 'NONE',  ( 4.538925740496062318E-15, -1.592040838891555398E-16, 1.299999999999996936 ) ) ;
#106 = AXIS2_PLACEMENT_3D ( 'NONE', #107, #62, #158 ) ;
#107 = CARTESIAN_POINT ( 'NONE',  ( 4.538925740496070206E-15, -1.592040838891558109E-16, 1.299999999999999156 ) ) ;
#108 = DIRECTION ( 'NONE',  ( -3.491481338843133355E-15, 1.224646799147353207E-16, -1.000000000000000000 ) ) ;
#109 = ADVANCED_BREP_SHAPE_REPRESENTATION ( '3429', ( #79, #80 ), #48 ) ;
#110 = CYLINDRICAL_SURFACE ( 'NONE', #157, 6.500000000000000000 ) ;
#111 = EDGE_LOOP ( 'NONE', ( #23 ) ) ;
#112 = ADVANCED_FACE ( 'NONE', ( #22, #68 ), #125, .T. ) ;
#113 = CARTESIAN_POINT ( 'NONE',  ( -1.068957861474239634E-29, 3.749399456654644239E-31, -3.061616997868383043E-15 ) ) ;
#114 = EDGE_LOOP ( 'NONE', ( #8 ) ) ;
#115 = CALENDAR_DATE ( 2021, 6, 12 ) ;
#116 = PERSON_AND_ORGANIZATION ( #44, #3 ) ;
#117 = CARTESIAN_POINT ( 'NONE',  ( 0.0000000000000000000, 6.500000000000000000, 0.0000000000000000000 ) ) ;
#118 = APPROVAL_PERSON_ORGANIZATION ( #116, #143, #166 ) ;
#119 =( LENGTH_UNIT ( ) NAMED_UNIT ( * ) SI_UNIT ( .MILLI., .METRE. ) );
#120 = DATE_AND_TIME ( #84, #161 ) ;
#121 = ADVANCED_FACE ( 'NONE', ( #60, #146 ), #110, .F. ) ;
#122 = AXIS2_PLACEMENT_3D ( 'NONE', #7, #136, #81 ) ;
#123 = PRODUCT_DEFINITION ( 'UNKNOWN', '', #90, #9 ) ;
#124 = EDGE_LOOP ( 'NONE', ( #61 ) ) ;
#125 = PLANE ( 'NONE',  #122 ) ;
#126 = CARTESIAN_POINT ( 'NONE',  ( 0.0000000000000000000, 25.00000000000000000, 0.0000000000000000000 ) ) ;
#127 = APPLICATION_CONTEXT ( 'configuration controlled 3d designs of mechanical parts and assemblies' ) ;
#128 = FACE_OUTER_BOUND ( 'NONE', #70, .T. ) ;
#129 = DATE_AND_TIME ( #26, #33 ) ;
#130 = SHAPE_DEFINITION_REPRESENTATION ( #77, #109 ) ;
#131 = EDGE_CURVE ( 'NONE', #102, #102, #86, .T. ) ;
#132 = APPROVAL ( #152, 'UNSPECIFIED' ) ;
#133 = CIRCLE ( 'NONE', #59, 25.00000000000000000 ) ;
#134 = UNCERTAINTY_MEASURE_WITH_UNIT (LENGTH_MEASURE( 1.000000000000000082E-05 ), #119, 'distance_accuracy_value', 'NONE');
#135 = DIRECTION ( 'NONE',  ( 4.275831445896958607E-31, 1.000000000000000000, 1.224646799147353207E-16 ) ) ;
#136 = DIRECTION ( 'NONE',  ( -3.491481338843133355E-15, 1.224646799147353207E-16, -1.000000000000000000 ) ) ;
#137 = FACE_BOUND ( 'NONE', #69, .T. ) ;
#138 = CARTESIAN_POINT ( 'NONE',  ( 4.538925740496073362E-15, 6.500000000000000000, 1.300000000000000044 ) ) ;
#139 = PERSON_AND_ORGANIZATION ( #44, #3 ) ;
#140 = DIRECTION ( 'NONE',  ( -3.491481338843133355E-15, 1.224646799147353207E-16, -1.000000000000000000 ) ) ;
#141 = APPROVAL_DATE_TIME ( #99, #132 ) ;
#142 = EDGE_CURVE ( 'NONE', #167, #167, #133, .T. ) ;
#143 = APPROVAL ( #151, 'UNSPECIFIED' ) ;
#144 = CARTESIAN_POINT ( 'NONE',  ( -2.779290439833023007E-30, 9.748438587302075546E-32, -7.960204194457795477E-16 ) ) ;
#145 = CC_DESIGN_SECURITY_CLASSIFICATION ( #29, ( #90 ) ) ;
#146 = FACE_OUTER_BOUND ( 'NONE', #124, .T. ) ;
#147 = CC_DESIGN_PERSON_AND_ORGANIZATION_ASSIGNMENT ( #52, #97, ( #156 ) ) ;
#148 = DIRECTION ( 'NONE',  ( 3.491481338843133355E-15, -1.224646799147353207E-16, 1.000000000000000000 ) ) ;
#149 = FACE_OUTER_BOUND ( 'NONE', #114, .T. ) ;
#150 = VERTEX_POINT ( 'NONE', #117 ) ;
#151 = APPROVAL_STATUS ( 'not_yet_approved' ) ;
#152 = APPROVAL_STATUS ( 'not_yet_approved' ) ;
#153 =( NAMED_UNIT ( * ) PLANE_ANGLE_UNIT ( ) SI_UNIT ( $, .RADIAN. ) );
#154 = ADVANCED_FACE ( 'NONE', ( #137, #128 ), #75, .T. ) ;
#155 = APPROVAL_PERSON_ORGANIZATION ( #139, #46, #1 ) ;
#156 = PRODUCT ( '3429', '3429', '', ( #64 ) ) ;
#157 = AXIS2_PLACEMENT_3D ( 'NONE', #49, #96, #35 ) ;
#158 = DIRECTION ( 'NONE',  ( 4.740750632337811128E-31, 1.000000000000000000, 1.334402673828313093E-16 ) ) ;
#159 = EDGE_LOOP ( 'NONE', ( #50 ) ) ;
#160 = APPLICATION_CONTEXT ( 'configuration controlled 3d designs of mechanical parts and assemblies' ) ;
#161 = LOCAL_TIME ( 13, 58, 56.00000000000000000, #36 ) ;
#162 = APPLICATION_PROTOCOL_DEFINITION ( 'international standard', 'config_control_design', 1994, #160 ) ;
#163 = PERSON_AND_ORGANIZATION_ROLE ( 'creator' ) ;
#164 = DIRECTION ( 'NONE',  ( 1.000000000000000000, 0.0000000000000000000, 0.0000000000000000000 ) ) ;
#165 = AXIS2_PLACEMENT_3D ( 'NONE', #71, #148, #12 ) ;
#166 = APPROVAL_ROLE ( '' ) ;
#167 = VERTEX_POINT ( 'NONE', #126 ) ;
#168 = PERSON_AND_ORGANIZATION_ROLE ( 'creator' ) ;
#169 = DATE_AND_TIME ( #115, #92 ) ;
ENDSEC;
END-ISO-10303-21;
