ISO-10303-21;
HEADER;
FILE_DESCRIPTION (( 'STEP AP203' ),
    '1' );
FILE_NAME ('3426.step',
    '2021-12-06T12:58:55',
    ( '' ),
    ( '' ),
    'SwSTEP 2.0',
    'SolidWorks 2019',
    '' );
FILE_SCHEMA (( 'CONFIG_CONTROL_DESIGN' ));
ENDSEC;

DATA;
#1 = FACE_OUTER_BOUND ( 'NONE', #115, .T. ) ;
#2 = DIRECTION ( 'NONE',  ( 3.078598641045806904E-30, 1.000000000000000000, 8.817456953860933428E-16 ) ) ;
#3 = CARTESIAN_POINT ( 'NONE',  ( -2.847703742967372341E-29, 6.500000000000000000, -8.156147682321366231E-15 ) ) ;
#4 = ORIENTED_EDGE ( 'NONE', *, *, #24, .F. ) ;
#5 = DIRECTION ( 'NONE',  ( 3.078598641045807955E-30, 1.000000000000000000, 8.817456953860934414E-16 ) ) ;
#6 = ORGANIZATION ( 'UNSPECIFIED', 'UNSPECIFIED', '' ) ;
#7 = EDGE_LOOP ( 'NONE', ( #117 ) ) ;
#8 = FACE_BOUND ( 'NONE', #13, .T. ) ;
#9 = SHAPE_DEFINITION_REPRESENTATION ( #129, #28 ) ;
#10 = EDGE_LOOP ( 'NONE', ( #121 ) ) ;
#11 = LOCAL_TIME ( 13, 58, 55.00000000000000000, #65 ) ;
#12 = PERSON_AND_ORGANIZATION_ROLE ( 'design_owner' ) ;
#13 = EDGE_LOOP ( 'NONE', ( #157 ) ) ;
#14 = COORDINATED_UNIVERSAL_TIME_OFFSET ( 1, 0, .AHEAD. ) ;
#15 = APPROVAL_ROLE ( '' ) ;
#16 = AXIS2_PLACEMENT_3D ( 'NONE', #3, #118, #103 ) ;
#17 = DIRECTION ( 'NONE',  ( -3.491481338843133355E-15, 8.817456953860934414E-16, -1.000000000000000000 ) ) ;
#18 = CARTESIAN_POINT ( 'NONE',  ( 8.728703347107552356E-16, 6.499999999999999112, 0.2499999999999919786 ) ) ;
#19 = CARTESIAN_POINT ( 'NONE',  ( 0.0000000000000000000, 0.0000000000000000000, 0.0000000000000000000 ) ) ;
#20 = PRODUCT_DEFINITION_FORMATION_WITH_SPECIFIED_SOURCE ( 'ANY', '', #42, .NOT_KNOWN. ) ;
#21 = EDGE_LOOP ( 'NONE', ( #104 ) ) ;
#22 = DATE_TIME_ROLE ( 'classification_date' ) ;
#23 = APPROVAL_STATUS ( 'not_yet_approved' ) ;
#24 = EDGE_CURVE ( 'NONE', #46, #46, #68, .T. ) ;
#25 = CC_DESIGN_PERSON_AND_ORGANIZATION_ASSIGNMENT ( #48, #124, ( #112 ) ) ;
#26 = APPROVAL_ROLE ( '' ) ;
#27 = CALENDAR_DATE ( 2021, 6, 12 ) ;
#28 = ADVANCED_BREP_SHAPE_REPRESENTATION ( '3426', ( #87, #139 ), #116 ) ;
#29 = LOCAL_TIME ( 13, 58, 55.00000000000000000, #123 ) ;
#30 = FACE_OUTER_BOUND ( 'NONE', #7, .T. ) ;
#31 = DIRECTION ( 'NONE',  ( 1.000000000000000000, 0.0000000000000000000, 0.0000000000000000000 ) ) ;
#32 = DIRECTION ( 'NONE',  ( -3.491481338843133355E-15, 8.817456953860934414E-16, -1.000000000000000000 ) ) ;
#33 = DIRECTION ( 'NONE',  ( 3.078598641045807955E-30, 1.000000000000000000, 8.817456953860934414E-16 ) ) ;
#34 = AXIS2_PLACEMENT_3D ( 'NONE', #18, #43, #82 ) ;
#35 = APPLICATION_PROTOCOL_DEFINITION ( 'international standard', 'config_control_design', 1994, #90 ) ;
#36 = DESIGN_CONTEXT ( 'detailed design', #90, 'design' ) ;
#37 = DATE_TIME_ROLE ( 'creation_date' ) ;
#38 = PERSON_AND_ORGANIZATION ( #169, #6 ) ;
#39 = APPROVAL ( #50, 'UNSPECIFIED' ) ;
#40 = SECURITY_CLASSIFICATION_LEVEL ( 'unclassified' ) ;
#41 = ADVANCED_FACE ( 'NONE', ( #8, #145 ), #105, .T. ) ;
#42 = PRODUCT ( '3426', '3426', '', ( #70 ) ) ;
#43 = DIRECTION ( 'NONE',  ( 3.491481338843133355E-15, -8.817456953860934414E-16, 1.000000000000000000 ) ) ;
#44 = CYLINDRICAL_SURFACE ( 'NONE', #102, 25.00000000000000000 ) ;
#45 = CLOSED_SHELL ( 'NONE', ( #110, #95, #41, #80 ) ) ;
#46 = VERTEX_POINT ( 'NONE', #57 ) ;
#47 = DIRECTION ( 'NONE',  ( 3.078598641045806904E-30, 1.000000000000000000, 8.817456953860933428E-16 ) ) ;
#48 = PERSON_AND_ORGANIZATION ( #169, #6 ) ;
#49 = SECURITY_CLASSIFICATION ( '', '', #40 ) ;
#50 = APPROVAL_STATUS ( 'not_yet_approved' ) ;
#51 = PERSON_AND_ORGANIZATION ( #169, #6 ) ;
#52 = PERSON_AND_ORGANIZATION_ROLE ( 'design_supplier' ) ;
#53 = DATE_AND_TIME ( #153, #167 ) ;
#54 = EDGE_CURVE ( 'NONE', #81, #81, #132, .T. ) ;
#55 = LOCAL_TIME ( 13, 58, 55.00000000000000000, #152 ) ;
#56 = CARTESIAN_POINT ( 'NONE',  ( 8.728703347107063263E-16, -2.204364238465039100E-16, 0.2499999999999779343 ) ) ;
#57 = CARTESIAN_POINT ( 'NONE',  ( 0.0000000000000000000, 6.500000000000000000, 0.0000000000000000000 ) ) ;
#58 =( NAMED_UNIT ( * ) SI_UNIT ( $, .STERADIAN. ) SOLID_ANGLE_UNIT ( ) );
#59 = FACE_BOUND ( 'NONE', #108, .T. ) ;
#60 = ORIENTED_EDGE ( 'NONE', *, *, #128, .T. ) ;
#61 = DIRECTION ( 'NONE',  ( 3.081487911019577715E-30, 1.000000000000000000, 8.840417714112576057E-16 ) ) ;
#62 = PERSON_AND_ORGANIZATION ( #169, #6 ) ;
#63 = CALENDAR_DATE ( 2021, 6, 12 ) ;
#64 = EDGE_LOOP ( 'NONE', ( #150 ) ) ;
#65 = COORDINATED_UNIVERSAL_TIME_OFFSET ( 1, 0, .AHEAD. ) ;
#66 = UNCERTAINTY_MEASURE_WITH_UNIT (LENGTH_MEASURE( 1.000000000000000082E-05 ), #83, 'distance_accuracy_value', 'NONE');
#67 = PERSON_AND_ORGANIZATION ( #169, #6 ) ;
#68 = CIRCLE ( 'NONE', #143, 6.500000000000000000 ) ;
#69 = AXIS2_PLACEMENT_3D ( 'NONE', #56, #32, #107 ) ;
#70 = MECHANICAL_CONTEXT ( 'NONE', #113, 'mechanical' ) ;
#71 = CYLINDRICAL_SURFACE ( 'NONE', #154, 6.499999999999999112 ) ;
#72 = APPROVAL_PERSON_ORGANIZATION ( #99, #39, #15 ) ;
#73 = PLANE ( 'NONE',  #16 ) ;
#74 = APPROVAL_DATE_TIME ( #111, #39 ) ;
#75 = APPROVAL ( #92, 'UNSPECIFIED' ) ;
#76 = DATE_AND_TIME ( #27, #29 ) ;
#77 = CC_DESIGN_APPROVAL ( #127, ( #20 ) ) ;
#78 = CC_DESIGN_PERSON_AND_ORGANIZATION_ASSIGNMENT ( #62, #12, ( #42 ) ) ;
#79 = EDGE_CURVE ( 'NONE', #158, #158, #126, .T. ) ;
#80 = ADVANCED_FACE ( 'NONE', ( #30, #109 ), #71, .F. ) ;
#81 = VERTEX_POINT ( 'NONE', #135 ) ;
#82 = DIRECTION ( 'NONE',  ( -3.078598641045807254E-30, -1.000000000000000000, -8.817456953860934414E-16 ) ) ;
#83 =( LENGTH_UNIT ( ) NAMED_UNIT ( * ) SI_UNIT ( .MILLI., .METRE. ) );
#84 = CALENDAR_DATE ( 2021, 6, 12 ) ;
#85 = EDGE_LOOP ( 'NONE', ( #136 ) ) ;
#86 = PERSON_AND_ORGANIZATION ( #169, #6 ) ;
#87 = MANIFOLD_SOLID_BREP ( 'Corps-Déplacer/Copier1', #45 ) ;
#88 = CARTESIAN_POINT ( 'NONE',  ( -2.001089116679774575E-29, 5.053590563657384991E-30, -5.731347020009606827E-15 ) ) ;
#89 = COORDINATED_UNIVERSAL_TIME_OFFSET ( 1, 0, .AHEAD. ) ;
#90 = APPLICATION_CONTEXT ( 'configuration controlled 3d designs of mechanical parts and assemblies' ) ;
#91 = CC_DESIGN_PERSON_AND_ORGANIZATION_ASSIGNMENT ( #86, #137, ( #49 ) ) ;
#92 = APPROVAL_STATUS ( 'not_yet_approved' ) ;
#93 = CARTESIAN_POINT ( 'NONE',  ( 1.094764425253763337E-44, 25.00000000000000000, 0.0000000000000000000 ) ) ;
#94 = DIRECTION ( 'NONE',  ( -3.491481338843133355E-15, 8.817456953860934414E-16, -1.000000000000000000 ) ) ;
#95 = ADVANCED_FACE ( 'NONE', ( #96, #133 ), #44, .T. ) ;
#96 = FACE_OUTER_BOUND ( 'NONE', #21, .T. ) ;
#97 = PRODUCT_RELATED_PRODUCT_CATEGORY ( 'detail', '', ( #42 ) ) ;
#98 = AXIS2_PLACEMENT_3D ( 'NONE', #159, #94, #5 ) ;
#99 = PERSON_AND_ORGANIZATION ( #169, #6 ) ;
#100 = APPROVAL_DATE_TIME ( #155, #127 ) ;
#101 = APPROVAL_PERSON_ORGANIZATION ( #51, #127, #164 ) ;
#102 = AXIS2_PLACEMENT_3D ( 'NONE', #149, #161, #33 ) ;
#103 = DIRECTION ( 'NONE',  ( 3.078598641045807254E-30, 1.000000000000000000, 8.817456953860934414E-16 ) ) ;
#104 = ORIENTED_EDGE ( 'NONE', *, *, #79, .T. ) ;
#105 = PLANE ( 'NONE',  #34 ) ;
#106 = CC_DESIGN_APPROVAL ( #39, ( #112 ) ) ;
#107 = DIRECTION ( 'NONE',  ( 3.081487911019577365E-30, 1.000000000000000000, 8.825405684032006093E-16 ) ) ;
#108 = EDGE_LOOP ( 'NONE', ( #4 ) ) ;
#109 = FACE_OUTER_BOUND ( 'NONE', #85, .T. ) ;
#110 = ADVANCED_FACE ( 'NONE', ( #1, #59 ), #73, .T. ) ;
#111 = DATE_AND_TIME ( #84, #55 ) ;
#112 = PRODUCT_DEFINITION ( 'UNKNOWN', '', #20, #36 ) ;
#113 = APPLICATION_CONTEXT ( 'configuration controlled 3d designs of mechanical parts and assemblies' ) ;
#114 = CC_DESIGN_DATE_AND_TIME_ASSIGNMENT ( #120, #37, ( #112 ) ) ;
#115 = EDGE_LOOP ( 'NONE', ( #60 ) ) ;
#116 =( GEOMETRIC_REPRESENTATION_CONTEXT ( 3 ) GLOBAL_UNCERTAINTY_ASSIGNED_CONTEXT ( ( #66 ) ) GLOBAL_UNIT_ASSIGNED_CONTEXT ( ( #83, #131, #58 ) ) REPRESENTATION_CONTEXT ( 'NONE', 'WORKASPACE' ) );
#117 = ORIENTED_EDGE ( 'NONE', *, *, #24, .T. ) ;
#118 = DIRECTION ( 'NONE',  ( -3.491481338843133355E-15, 8.817456953860934414E-16, -1.000000000000000000 ) ) ;
#119 = CARTESIAN_POINT ( 'NONE',  ( 8.728703347107833388E-16, 25.00000000000000000, 0.2500000000000000000 ) ) ;
#120 = DATE_AND_TIME ( #63, #151 ) ;
#121 = ORIENTED_EDGE ( 'NONE', *, *, #128, .F. ) ;
#122 = CC_DESIGN_APPROVAL ( #75, ( #49 ) ) ;
#123 = COORDINATED_UNIVERSAL_TIME_OFFSET ( 1, 0, .AHEAD. ) ;
#124 = PERSON_AND_ORGANIZATION_ROLE ( 'creator' ) ;
#125 = APPROVAL_DATE_TIME ( #76, #75 ) ;
#126 = CIRCLE ( 'NONE', #69, 25.00000000000000000 ) ;
#127 = APPROVAL ( #23, 'UNSPECIFIED' ) ;
#128 = EDGE_CURVE ( 'NONE', #160, #160, #165, .T. ) ;
#129 = PRODUCT_DEFINITION_SHAPE ( 'NONE', 'NONE',  #112 ) ;
#130 = CC_DESIGN_PERSON_AND_ORGANIZATION_ASSIGNMENT ( #163, #52, ( #20 ) ) ;
#131 =( NAMED_UNIT ( * ) PLANE_ANGLE_UNIT ( ) SI_UNIT ( $, .RADIAN. ) );
#132 = CIRCLE ( 'NONE', #156, 6.499999999999999112 ) ;
#133 = FACE_OUTER_BOUND ( 'NONE', #10, .T. ) ;
#134 = CARTESIAN_POINT ( 'NONE',  ( 8.728703347107641103E-16, -2.204364238465185039E-16, 0.2499999999999944766 ) ) ;
#135 = CARTESIAN_POINT ( 'NONE',  ( 8.728703347107841277E-16, 6.499999999999999112, 0.2500000000000002220 ) ) ;
#136 = ORIENTED_EDGE ( 'NONE', *, *, #54, .F. ) ;
#137 = PERSON_AND_ORGANIZATION_ROLE ( 'classification_officer' ) ;
#138 = CC_DESIGN_PERSON_AND_ORGANIZATION_ASSIGNMENT ( #38, #140, ( #20 ) ) ;
#139 = AXIS2_PLACEMENT_3D ( 'NONE', #19, #146, #31 ) ;
#140 = PERSON_AND_ORGANIZATION_ROLE ( 'creator' ) ;
#141 = CALENDAR_DATE ( 2021, 6, 12 ) ;
#142 = APPROVAL_PERSON_ORGANIZATION ( #67, #75, #26 ) ;
#143 = AXIS2_PLACEMENT_3D ( 'NONE', #88, #17, #2 ) ;
#144 = DIRECTION ( 'NONE',  ( -3.491481338843133355E-15, 8.817456953860934414E-16, -1.000000000000000000 ) ) ;
#145 = FACE_OUTER_BOUND ( 'NONE', #64, .T. ) ;
#146 = DIRECTION ( 'NONE',  ( 0.0000000000000000000, 0.0000000000000000000, 1.000000000000000000 ) ) ;
#147 = CC_DESIGN_SECURITY_CLASSIFICATION ( #49, ( #20 ) ) ;
#148 = APPLICATION_PROTOCOL_DEFINITION ( 'international standard', 'config_control_design', 1994, #113 ) ;
#149 = CARTESIAN_POINT ( 'NONE',  ( 0.0000000000000000000, 0.0000000000000000000, 0.0000000000000000000 ) ) ;
#150 = ORIENTED_EDGE ( 'NONE', *, *, #79, .F. ) ;
#151 = LOCAL_TIME ( 13, 58, 55.00000000000000000, #89 ) ;
#152 = COORDINATED_UNIVERSAL_TIME_OFFSET ( 1, 0, .AHEAD. ) ;
#153 = CALENDAR_DATE ( 2021, 6, 12 ) ;
#154 = AXIS2_PLACEMENT_3D ( 'NONE', #162, #144, #47 ) ;
#155 = DATE_AND_TIME ( #141, #11 ) ;
#156 = AXIS2_PLACEMENT_3D ( 'NONE', #134, #168, #61 ) ;
#157 = ORIENTED_EDGE ( 'NONE', *, *, #54, .T. ) ;
#158 = VERTEX_POINT ( 'NONE', #119 ) ;
#159 = CARTESIAN_POINT ( 'NONE',  ( -7.696496602614518415E-29, 1.943688678329763781E-29, -2.204364238465233613E-14 ) ) ;
#160 = VERTEX_POINT ( 'NONE', #93 ) ;
#161 = DIRECTION ( 'NONE',  ( -3.491481338843133355E-15, 8.817456953860934414E-16, -1.000000000000000000 ) ) ;
#162 = CARTESIAN_POINT ( 'NONE',  ( 0.0000000000000000000, 0.0000000000000000000, 0.0000000000000000000 ) ) ;
#163 = PERSON_AND_ORGANIZATION ( #169, #6 ) ;
#164 = APPROVAL_ROLE ( '' ) ;
#165 = CIRCLE ( 'NONE', #98, 25.00000000000000000 ) ;
#166 = CC_DESIGN_DATE_AND_TIME_ASSIGNMENT ( #53, #22, ( #49 ) ) ;
#167 = LOCAL_TIME ( 13, 58, 55.00000000000000000, #14 ) ;
#168 = DIRECTION ( 'NONE',  ( -3.491481338843133355E-15, 8.817456953860934414E-16, -1.000000000000000000 ) ) ;
#169 = PERSON ( 'UNSPECIFIED', 'UNSPECIFIED', 'UNSPECIFIED', ('UNSPECIFIED'), ('UNSPECIFIED'), ('UNSPECIFIED') ) ;
ENDSEC;
END-ISO-10303-21;
