ISO-10303-21;
HEADER;
FILE_DESCRIPTION (( 'STEP AP203' ),
    '1' );
FILE_NAME ('342433.step',
    '2021-12-03T06:48:45',
    ( '' ),
    ( '' ),
    'SwSTEP 2.0',
    'SolidWorks 2019',
    '' );
FILE_SCHEMA (( 'CONFIG_CONTROL_DESIGN' ));
ENDSEC;

DATA;
#1 = ADVANCED_FACE ( 'NONE', ( #161 ), #158, .F. ) ;
#2 = CARTESIAN_POINT ( 'NONE',  ( 0.0000000000000000000, 0.0000000000000000000, 0.0000000000000000000 ) ) ;
#3 = DIRECTION ( 'NONE',  ( 3.491481338843133355E-15, -1.224646799147353454E-16, 1.000000000000000000 ) ) ;
#4 = CARTESIAN_POINT ( 'NONE',  ( 0.0000000000000000000, 0.0000000000000000000, 0.0000000000000000000 ) ) ;
#5 = PRODUCT_DEFINITION_SHAPE ( 'NONE', 'NONE',  #232 ) ;
#6 = DATE_AND_TIME ( #117, #48 ) ;
#7 = DIRECTION ( 'NONE',  ( 4.275831445896959482E-31, 1.000000000000000000, 1.224646799147353454E-16 ) ) ;
#8 = PERSON_AND_ORGANIZATION ( #209, #210 ) ;
#9 = DIRECTION ( 'NONE',  ( -3.491481338843133355E-15, 1.224646799147353454E-16, -1.000000000000000000 ) ) ;
#10 = ADVANCED_BREP_SHAPE_REPRESENTATION ( '342433', ( #179, #182, #47 ), #120 ) ;
#11 = COORDINATED_UNIVERSAL_TIME_OFFSET ( 1, 0, .AHEAD. ) ;
#12 = AXIS2_PLACEMENT_3D ( 'NONE', #69, #139, #241 ) ;
#13 = LOCAL_TIME ( 7, 48, 45.00000000000000000, #137 ) ;
#14 = EDGE_LOOP ( 'NONE', ( #102 ) ) ;
#15 = EDGE_LOOP ( 'NONE', ( #234 ) ) ;
#16 = LOCAL_TIME ( 7, 48, 45.00000000000000000, #104 ) ;
#17 = ORIENTED_EDGE ( 'NONE', *, *, #18, .T. ) ;
#18 = EDGE_CURVE ( 'NONE', #183, #183, #207, .T. ) ;
#19 = FACE_OUTER_BOUND ( 'NONE', #177, .T. ) ;
#20 = CARTESIAN_POINT ( 'NONE',  ( 6.798878468196276826E-14, -2.384725549364454618E-15, 19.47276186917560636 ) ) ;
#21 = CALENDAR_DATE ( 2021, 3, 12 ) ;
#22 = PLANE ( 'NONE',  #38 ) ;
#23 = PERSON_AND_ORGANIZATION ( #209, #210 ) ;
#24 = CARTESIAN_POINT ( 'NONE',  ( 5.586370142149013368E-14, -1.959434878635765526E-15, 16.00000000000000000 ) ) ;
#25 = CARTESIAN_POINT ( 'NONE',  ( 5.586370142149013368E-14, -1.959434878635765526E-15, 16.00000000000000000 ) ) ;
#26 = ADVANCED_FACE ( 'NONE', ( #193, #169 ), #134, .T. ) ;
#27 = CC_DESIGN_PERSON_AND_ORGANIZATION_ASSIGNMENT ( #213, #33, ( #232 ) ) ;
#28 = CIRCLE ( 'NONE', #109, 2.999999999999988898 ) ;
#29 = APPROVAL_PERSON_ORGANIZATION ( #74, #84, #208 ) ;
#30 = EDGE_LOOP ( 'NONE', ( #141 ) ) ;
#31 = APPROVAL_STATUS ( 'not_yet_approved' ) ;
#32 = DIRECTION ( 'NONE',  ( 0.0000000000000000000, 1.000000000000000000, 0.0000000000000000000 ) ) ;
#33 = PERSON_AND_ORGANIZATION_ROLE ( 'creator' ) ;
#34 = CARTESIAN_POINT ( 'NONE',  ( 5.586370142149013368E-14, 3.753148856111297323E-32, 16.00000000000000000 ) ) ;
#35 = PRODUCT_RELATED_PRODUCT_CATEGORY ( 'detail', '', ( #44 ) ) ;
#36 = ORIENTED_EDGE ( 'NONE', *, *, #231, .F. ) ;
#37 = CLOSED_SHELL ( 'NONE', ( #105, #194, #125, #67 ) ) ;
#38 = AXIS2_PLACEMENT_3D ( 'NONE', #95, #149, #224 ) ;
#39 = MECHANICAL_CONTEXT ( 'NONE', #155, 'mechanical' ) ;
#40 = CARTESIAN_POINT ( 'NONE',  ( -1.926262066376579406E-30, 6.756417820891668031E-32, -5.517033830158824459E-16 ) ) ;
#41 = LOCAL_TIME ( 7, 48, 45.00000000000000000, #11 ) ;
#42 = DIRECTION ( 'NONE',  ( -3.491481338843133355E-15, 1.224646799147353454E-16, -1.000000000000000000 ) ) ;
#43 = UNCERTAINTY_MEASURE_WITH_UNIT (LENGTH_MEASURE( 1.000000000000000082E-05 ), #87, 'distance_accuracy_value', 'NONE');
#44 = PRODUCT ( '342433', '342433', '', ( #39 ) ) ;
#45 = DIRECTION ( 'NONE',  ( 4.275831445896959482E-31, 1.000000000000000000, 1.224646799147353454E-16 ) ) ;
#46 = DIRECTION ( 'NONE',  ( -3.491481338843133355E-15, 1.224646799147353454E-16, -1.000000000000000000 ) ) ;
#47 = AXIS2_PLACEMENT_3D ( 'NONE', #2, #52, #236 ) ;
#48 = LOCAL_TIME ( 7, 48, 45.00000000000000000, #170 ) ;
#49 = ORIENTED_EDGE ( 'NONE', *, *, #178, .T. ) ;
#50 = DATE_AND_TIME ( #212, #73 ) ;
#51 = EDGE_LOOP ( 'NONE', ( #76 ) ) ;
#52 = DIRECTION ( 'NONE',  ( 0.0000000000000000000, 0.0000000000000000000, 1.000000000000000000 ) ) ;
#53 = VERTEX_POINT ( 'NONE', #190 ) ;
#54 = CARTESIAN_POINT ( 'NONE',  ( 4.085033166446466404E-13, -1.432836755002403758E-14, 117.0000000000000000 ) ) ;
#55 = VERTEX_POINT ( 'NONE', #143 ) ;
#56 = PLANE ( 'NONE',  #229 ) ;
#57 = AXIS2_PLACEMENT_3D ( 'NONE', #122, #146, #180 ) ;
#58 = EDGE_CURVE ( 'NONE', #112, #112, #98, .T. ) ;
#59 = DATE_TIME_ROLE ( 'classification_date' ) ;
#60 = DIRECTION ( 'NONE',  ( 4.275831445896959482E-31, 1.000000000000000000, 1.224646799147353454E-16 ) ) ;
#61 = CALENDAR_DATE ( 2021, 3, 12 ) ;
#62 = DIRECTION ( 'NONE',  ( -3.491481338843133355E-15, 1.224646799147353454E-16, -1.000000000000000000 ) ) ;
#63 = APPROVAL_STATUS ( 'not_yet_approved' ) ;
#64 = AXIS2_PLACEMENT_3D ( 'NONE', #4, #191, #60 ) ;
#65 = APPROVAL ( #31, 'UNSPECIFIED' ) ;
#66 = APPROVAL_STATUS ( 'not_yet_approved' ) ;
#67 = ADVANCED_FACE ( 'NONE', ( #154, #192 ), #235, .T. ) ;
#68 = AXIS2_PLACEMENT_3D ( 'NONE', #40, #206, #45 ) ;
#69 = CARTESIAN_POINT ( 'NONE',  ( 4.085033166446466404E-13, 1.799711739194208876E-32, 117.0000000000000000 ) ) ;
#70 = PERSON_AND_ORGANIZATION ( #209, #210 ) ;
#71 = EDGE_LOOP ( 'NONE', ( #126 ) ) ;
#72 = PERSON_AND_ORGANIZATION ( #209, #210 ) ;
#73 = LOCAL_TIME ( 7, 48, 45.00000000000000000, #243 ) ;
#74 = PERSON_AND_ORGANIZATION ( #209, #210 ) ;
#75 = ORIENTED_EDGE ( 'NONE', *, *, #18, .F. ) ;
#76 = ORIENTED_EDGE ( 'NONE', *, *, #231, .T. ) ;
#77 = EDGE_CURVE ( 'NONE', #55, #55, #175, .T. ) ;
#78 = DIRECTION ( 'NONE',  ( -4.275831445896959482E-31, -1.000000000000000000, -1.224646799147353454E-16 ) ) ;
#79 = DIRECTION ( 'NONE',  ( -4.275831445896959482E-31, -1.000000000000000000, -1.224646799147353454E-16 ) ) ;
#80 = FACE_BOUND ( 'NONE', #199, .T. ) ;
#81 = APPROVAL_DATE_TIME ( #6, #84 ) ;
#82 = DIRECTION ( 'NONE',  ( -3.491481338843133355E-15, 1.224646799147353454E-16, -1.000000000000000000 ) ) ;
#83 = DIRECTION ( 'NONE',  ( 0.0000000000000000000, 1.000000000000000000, 0.0000000000000000000 ) ) ;
#84 = APPROVAL ( #66, 'UNSPECIFIED' ) ;
#85 = CC_DESIGN_DATE_AND_TIME_ASSIGNMENT ( #151, #59, ( #187 ) ) ;
#86 = APPROVAL_PERSON_ORGANIZATION ( #72, #65, #200 ) ;
#87 =( LENGTH_UNIT ( ) NAMED_UNIT ( * ) SI_UNIT ( .MILLI., .METRE. ) );
#88 = FACE_OUTER_BOUND ( 'NONE', #15, .T. ) ;
#89 = CALENDAR_DATE ( 2021, 3, 12 ) ;
#90 = ORIENTED_EDGE ( 'NONE', *, *, #119, .F. ) ;
#91 = CIRCLE ( 'NONE', #68, 4.504999999999998117 ) ;
#92 = DIRECTION ( 'NONE',  ( 3.491481338843133355E-15, -1.224646799147353454E-16, 1.000000000000000000 ) ) ;
#93 = CYLINDRICAL_SURFACE ( 'NONE', #118, 5.004999999999999005 ) ;
#94 = APPROVAL_DATE_TIME ( #133, #197 ) ;
#95 = CARTESIAN_POINT ( 'NONE',  ( 5.586370142149013368E-14, 3.753148856111297323E-32, 16.00000000000000000 ) ) ;
#96 = FACE_OUTER_BOUND ( 'NONE', #30, .T. ) ;
#97 = FACE_OUTER_BOUND ( 'NONE', #107, .T. ) ;
#98 = CIRCLE ( 'NONE', #185, 5.004999999999999893 ) ;
#99 = DIRECTION ( 'NONE',  ( -3.491481338843133355E-15, 1.224646799147353454E-16, -1.000000000000000000 ) ) ;
#100 = AXIS2_PLACEMENT_3D ( 'NONE', #54, #237, #32 ) ;
#101 = ADVANCED_FACE ( 'NONE', ( #228, #96 ), #159, .T. ) ;
#102 = ORIENTED_EDGE ( 'NONE', *, *, #119, .T. ) ;
#103 = APPROVAL_DATE_TIME ( #50, #65 ) ;
#104 = COORDINATED_UNIVERSAL_TIME_OFFSET ( 1, 0, .AHEAD. ) ;
#105 = ADVANCED_FACE ( 'NONE', ( #147, #97 ), #93, .T. ) ;
#106 = VERTEX_POINT ( 'NONE', #218 ) ;
#107 = EDGE_LOOP ( 'NONE', ( #36 ) ) ;
#108 = AXIS2_PLACEMENT_3D ( 'NONE', #220, #3, #79 ) ;
#109 = AXIS2_PLACEMENT_3D ( 'NONE', #20, #99, #160 ) ;
#110 = VERTEX_POINT ( 'NONE', #215 ) ;
#111 = FACE_OUTER_BOUND ( 'NONE', #14, .T. ) ;
#112 = VERTEX_POINT ( 'NONE', #127 ) ;
#113 = CARTESIAN_POINT ( 'NONE',  ( -9.631310331882897032E-31, 3.378208910445834015E-32, -2.758516915079412230E-16 ) ) ;
#114 = DIRECTION ( 'NONE',  ( 0.0000000000000000000, 1.000000000000000000, 0.0000000000000000000 ) ) ;
#115 = DIRECTION ( 'NONE',  ( 0.0000000000000000000, 1.000000000000000000, 0.0000000000000000000 ) ) ;
#116 = EDGE_CURVE ( 'NONE', #123, #123, #195, .T. ) ;
#117 = CALENDAR_DATE ( 2021, 3, 12 ) ;
#118 = AXIS2_PLACEMENT_3D ( 'NONE', #168, #62, #7 ) ;
#119 = EDGE_CURVE ( 'NONE', #110, #110, #91, .T. ) ;
#120 =( GEOMETRIC_REPRESENTATION_CONTEXT ( 3 ) GLOBAL_UNCERTAINTY_ASSIGNED_CONTEXT ( ( #43 ) ) GLOBAL_UNIT_ASSIGNED_CONTEXT ( ( #87, #217, #188 ) ) REPRESENTATION_CONTEXT ( 'NONE', 'WORKASPACE' ) );
#121 = EDGE_LOOP ( 'NONE', ( #124 ) ) ;
#122 = CARTESIAN_POINT ( 'NONE',  ( 1.745740669421564508E-15, -6.123233995736759873E-17, 0.4999999999999993339 ) ) ;
#123 = VERTEX_POINT ( 'NONE', #198 ) ;
#124 = ORIENTED_EDGE ( 'NONE', *, *, #77, .T. ) ;
#125 = ADVANCED_FACE ( 'NONE', ( #111 ), #56, .T. ) ;
#126 = ORIENTED_EDGE ( 'NONE', *, *, #116, .T. ) ;
#127 = CARTESIAN_POINT ( 'NONE',  ( 5.586370142149013368E-14, 5.004999999999998117, 16.00000000000000000 ) ) ;
#128 = CC_DESIGN_PERSON_AND_ORGANIZATION_ASSIGNMENT ( #23, #223, ( #187 ) ) ;
#129 = EDGE_LOOP ( 'NONE', ( #214 ) ) ;
#130 = AXIS2_PLACEMENT_3D ( 'NONE', #173, #9, #115 ) ;
#131 = FACE_OUTER_BOUND ( 'NONE', #201, .T. ) ;
#132 = DIRECTION ( 'NONE',  ( -3.491481338843133355E-15, 1.224646799147353454E-16, -1.000000000000000000 ) ) ;
#133 = DATE_AND_TIME ( #61, #41 ) ;
#134 = CYLINDRICAL_SURFACE ( 'NONE', #64, 2.999999999999994671 ) ;
#135 = CC_DESIGN_APPROVAL ( #65, ( #232 ) ) ;
#136 = ADVANCED_FACE ( 'NONE', ( #131, #80 ), #176, .T. ) ;
#137 = COORDINATED_UNIVERSAL_TIME_OFFSET ( 1, 0, .AHEAD. ) ;
#138 = APPROVAL_PERSON_ORGANIZATION ( #8, #197, #225 ) ;
#139 = DIRECTION ( 'NONE',  ( -3.491481338843133355E-15, 1.224646799147353454E-16, -1.000000000000000000 ) ) ;
#140 = APPLICATION_PROTOCOL_DEFINITION ( 'international standard', 'config_control_design', 1994, #155 ) ;
#141 = ORIENTED_EDGE ( 'NONE', *, *, #58, .F. ) ;
#142 = AXIS2_PLACEMENT_3D ( 'NONE', #24, #171, #114 ) ;
#143 = CARTESIAN_POINT ( 'NONE',  ( 4.064084278413407478E-13, 2.999999999999987121, 116.4000000000000057 ) ) ;
#144 = CC_DESIGN_PERSON_AND_ORGANIZATION_ASSIGNMENT ( #70, #181, ( #44 ) ) ;
#145 = CARTESIAN_POINT ( 'NONE',  ( 4.085033166446466404E-13, 2.399999999999986144, 117.0000000000000000 ) ) ;
#146 = DIRECTION ( 'NONE',  ( -3.491481338843133355E-15, 1.224646799147353454E-16, -1.000000000000000000 ) ) ;
#147 = FACE_OUTER_BOUND ( 'NONE', #71, .T. ) ;
#148 = PERSON_AND_ORGANIZATION_ROLE ( 'design_supplier' ) ;
#149 = DIRECTION ( 'NONE',  ( 3.491481338843133355E-15, -1.224646799147353454E-16, 1.000000000000000000 ) ) ;
#150 = ADVANCED_FACE ( 'NONE', ( #19 ), #22, .F. ) ;
#151 = DATE_AND_TIME ( #21, #13 ) ;
#152 = DIRECTION ( 'NONE',  ( 0.0000000000000000000, 1.000000000000000000, 0.0000000000000000000 ) ) ;
#153 = SHAPE_DEFINITION_REPRESENTATION ( #5, #10 ) ;
#154 = FACE_OUTER_BOUND ( 'NONE', #51, .T. ) ;
#155 = APPLICATION_CONTEXT ( 'configuration controlled 3d designs of mechanical parts and assemblies' ) ;
#156 = PRODUCT_DEFINITION_FORMATION_WITH_SPECIFIED_SOURCE ( 'ANY', '', #44, .NOT_KNOWN. ) ;
#157 = CIRCLE ( 'NONE', #57, 5.004999999999999005 ) ;
#158 = PLANE ( 'NONE',  #12 ) ;
#159 = CONICAL_SURFACE ( 'NONE', #142, 5.004999999999999893, 0.5235987755983001479 ) ;
#160 = DIRECTION ( 'NONE',  ( 0.0000000000000000000, 1.000000000000000000, 0.0000000000000000000 ) ) ;
#161 = FACE_OUTER_BOUND ( 'NONE', #167, .T. ) ;
#162 = APPLICATION_PROTOCOL_DEFINITION ( 'international standard', 'config_control_design', 1994, #166 ) ;
#163 = DATE_AND_TIME ( #89, #16 ) ;
#164 = ORIENTED_EDGE ( 'NONE', *, *, #77, .F. ) ;
#165 = CC_DESIGN_APPROVAL ( #84, ( #156 ) ) ;
#166 = APPLICATION_CONTEXT ( 'configuration controlled 3d designs of mechanical parts and assemblies' ) ;
#167 = EDGE_LOOP ( 'NONE', ( #75 ) ) ;
#168 = CARTESIAN_POINT ( 'NONE',  ( 0.0000000000000000000, 0.0000000000000000000, 0.0000000000000000000 ) ) ;
#169 = FACE_OUTER_BOUND ( 'NONE', #121, .T. ) ;
#170 = COORDINATED_UNIVERSAL_TIME_OFFSET ( 1, 0, .AHEAD. ) ;
#171 = DIRECTION ( 'NONE',  ( -3.491481338843133355E-15, 1.224646799147353454E-16, -1.000000000000000000 ) ) ;
#172 = PERSON_AND_ORGANIZATION ( #209, #210 ) ;
#173 = CARTESIAN_POINT ( 'NONE',  ( 4.064084278413407478E-13, -1.425488874207519270E-14, 116.4000000000000057 ) ) ;
#174 = CC_DESIGN_DATE_AND_TIME_ASSIGNMENT ( #163, #240, ( #232 ) ) ;
#175 = CIRCLE ( 'NONE', #130, 3.000000000000001332 ) ;
#176 = CONICAL_SURFACE ( 'NONE', #242, 2.400000000000000799, 0.7853981633974461696 ) ;
#177 = EDGE_LOOP ( 'NONE', ( #239 ) ) ;
#178 = EDGE_CURVE ( 'NONE', #106, #106, #28, .T. ) ;
#179 = MANIFOLD_SOLID_BREP ( 'Corps-Déplacer/Copier1[1]', #186 ) ;
#180 = DIRECTION ( 'NONE',  ( 4.617614252277089751E-31, 1.000000000000000000, 1.299742864118487057E-16 ) ) ;
#181 = PERSON_AND_ORGANIZATION_ROLE ( 'design_owner' ) ;
#182 = MANIFOLD_SOLID_BREP ( 'Corps-Déplacer/Copier1[2]', #37 ) ;
#183 = VERTEX_POINT ( 'NONE', #145 ) ;
#184 = EDGE_LOOP ( 'NONE', ( #49 ) ) ;
#185 = AXIS2_PLACEMENT_3D ( 'NONE', #226, #132, #83 ) ;
#186 = CLOSED_SHELL ( 'NONE', ( #150, #101, #26, #136, #1 ) ) ;
#187 = SECURITY_CLASSIFICATION ( '', '', #227 ) ;
#188 =( NAMED_UNIT ( * ) SI_UNIT ( $, .STERADIAN. ) SOLID_ANGLE_UNIT ( ) );
#189 = DIRECTION ( 'NONE',  ( 0.0000000000000000000, 1.000000000000000000, 0.0000000000000000000 ) ) ;
#190 = CARTESIAN_POINT ( 'NONE',  ( 1.745740669421566678E-15, 5.004999999999999005, 0.5000000000000000000 ) ) ;
#191 = DIRECTION ( 'NONE',  ( -3.491481338843133355E-15, 1.224646799147353454E-16, -1.000000000000000000 ) ) ;
#192 = FACE_BOUND ( 'NONE', #216, .T. ) ;
#193 = FACE_OUTER_BOUND ( 'NONE', #129, .T. ) ;
#194 = ADVANCED_FACE ( 'NONE', ( #88 ), #238, .T. ) ;
#195 = CIRCLE ( 'NONE', #196, 5.004999999999999893 ) ;
#196 = AXIS2_PLACEMENT_3D ( 'NONE', #25, #82, #152 ) ;
#197 = APPROVAL ( #63, 'UNSPECIFIED' ) ;
#198 = CARTESIAN_POINT ( 'NONE',  ( 5.586370142149013368E-14, 5.004999999999998117, 16.00000000000000000 ) ) ;
#199 = EDGE_LOOP ( 'NONE', ( #17 ) ) ;
#200 = APPROVAL_ROLE ( '' ) ;
#201 = EDGE_LOOP ( 'NONE', ( #164 ) ) ;
#202 = CC_DESIGN_APPROVAL ( #197, ( #187 ) ) ;
#203 = CARTESIAN_POINT ( 'NONE',  ( 4.085033166446466404E-13, -1.432836755002403758E-14, 117.0000000000000000 ) ) ;
#204 = DIRECTION ( 'NONE',  ( 4.275831445896959482E-31, 1.000000000000000000, 1.224646799147353454E-16 ) ) ;
#205 = PERSON_AND_ORGANIZATION_ROLE ( 'creator' ) ;
#206 = DIRECTION ( 'NONE',  ( -3.491481338843133355E-15, 1.224646799147353454E-16, -1.000000000000000000 ) ) ;
#207 = CIRCLE ( 'NONE', #100, 2.400000000000000799 ) ;
#208 = APPROVAL_ROLE ( '' ) ;
#209 = PERSON ( 'UNSPECIFIED', 'UNSPECIFIED', 'UNSPECIFIED', ('UNSPECIFIED'), ('UNSPECIFIED'), ('UNSPECIFIED') ) ;
#210 = ORGANIZATION ( 'UNSPECIFIED', 'UNSPECIFIED', '' ) ;
#211 = CC_DESIGN_PERSON_AND_ORGANIZATION_ASSIGNMENT ( #172, #148, ( #156 ) ) ;
#212 = CALENDAR_DATE ( 2021, 3, 12 ) ;
#213 = PERSON_AND_ORGANIZATION ( #209, #210 ) ;
#214 = ORIENTED_EDGE ( 'NONE', *, *, #178, .F. ) ;
#215 = CARTESIAN_POINT ( 'NONE',  ( 0.0000000000000000000, 4.504999999999998117, 0.0000000000000000000 ) ) ;
#216 = EDGE_LOOP ( 'NONE', ( #90 ) ) ;
#217 =( NAMED_UNIT ( * ) PLANE_ANGLE_UNIT ( ) SI_UNIT ( $, .RADIAN. ) );
#218 = CARTESIAN_POINT ( 'NONE',  ( 6.798878468196276826E-14, 2.999999999999986677, 19.47276186917560636 ) ) ;
#219 = CC_DESIGN_PERSON_AND_ORGANIZATION_ASSIGNMENT ( #230, #205, ( #156 ) ) ;
#220 = CARTESIAN_POINT ( 'NONE',  ( -1.926262066376579406E-30, 6.756417820891668031E-32, -5.517033830158824459E-16 ) ) ;
#221 = DESIGN_CONTEXT ( 'detailed design', #166, 'design' ) ;
#222 = AXIS2_PLACEMENT_3D ( 'NONE', #34, #92, #78 ) ;
#223 = PERSON_AND_ORGANIZATION_ROLE ( 'classification_officer' ) ;
#224 = DIRECTION ( 'NONE',  ( -4.275831445896959482E-31, -1.000000000000000000, -1.224646799147353454E-16 ) ) ;
#225 = APPROVAL_ROLE ( '' ) ;
#226 = CARTESIAN_POINT ( 'NONE',  ( 5.586370142149013368E-14, -1.959434878635765526E-15, 16.00000000000000000 ) ) ;
#227 = SECURITY_CLASSIFICATION_LEVEL ( 'unclassified' ) ;
#228 = FACE_BOUND ( 'NONE', #184, .T. ) ;
#229 = AXIS2_PLACEMENT_3D ( 'NONE', #113, #46, #204 ) ;
#230 = PERSON_AND_ORGANIZATION ( #209, #210 ) ;
#231 = EDGE_CURVE ( 'NONE', #53, #53, #157, .T. ) ;
#232 = PRODUCT_DEFINITION ( 'UNKNOWN', '', #156, #221 ) ;
#233 = CC_DESIGN_SECURITY_CLASSIFICATION ( #187, ( #156 ) ) ;
#234 = ORIENTED_EDGE ( 'NONE', *, *, #116, .F. ) ;
#235 = CONICAL_SURFACE ( 'NONE', #108, 4.504999999999998117, 0.7853981633974497223 ) ;
#236 = DIRECTION ( 'NONE',  ( 1.000000000000000000, 0.0000000000000000000, 0.0000000000000000000 ) ) ;
#237 = DIRECTION ( 'NONE',  ( -3.491481338843133355E-15, 1.224646799147353454E-16, -1.000000000000000000 ) ) ;
#238 = PLANE ( 'NONE',  #222 ) ;
#239 = ORIENTED_EDGE ( 'NONE', *, *, #58, .T. ) ;
#240 = DATE_TIME_ROLE ( 'creation_date' ) ;
#241 = DIRECTION ( 'NONE',  ( 4.275831445896959482E-31, 1.000000000000000000, 1.224646799147353454E-16 ) ) ;
#242 = AXIS2_PLACEMENT_3D ( 'NONE', #203, #42, #189 ) ;
#243 = COORDINATED_UNIVERSAL_TIME_OFFSET ( 1, 0, .AHEAD. ) ;
ENDSEC;
END-ISO-10303-21;
