ISO-10303-21;
HEADER;
FILE_DESCRIPTION (( 'STEP AP203' ),
    '1' );
FILE_NAME ('342402.step',
    '2021-12-03T06:48:44',
    ( '' ),
    ( '' ),
    'SwSTEP 2.0',
    'SolidWorks 2019',
    '' );
FILE_SCHEMA (( 'CONFIG_CONTROL_DESIGN' ));
ENDSEC;

DATA;
#1 = COORDINATED_UNIVERSAL_TIME_OFFSET ( 1, 0, .AHEAD. ) ;
#2 = FACE_BOUND ( 'NONE', #177, .T. ) ;
#3 = DIRECTION ( 'NONE',  ( 3.491481338843133355E-15, -1.224646799147353454E-16, 1.000000000000000000 ) ) ;
#4 = DESIGN_CONTEXT ( 'detailed design', #12, 'design' ) ;
#5 = LOCAL_TIME ( 7, 48, 44.00000000000000000, #34 ) ;
#6 = DIRECTION ( 'NONE',  ( -4.275831445896959482E-31, -1.000000000000000000, -1.224646799147353454E-16 ) ) ;
#7 = EDGE_CURVE ( 'NONE', #214, #214, #126, .T. ) ;
#8 = CARTESIAN_POINT ( 'NONE',  ( 4.085033166446466404E-13, -1.432836755002403758E-14, 117.0000000000000000 ) ) ;
#9 = DIRECTION ( 'NONE',  ( 0.0000000000000000000, 1.000000000000000000, 0.0000000000000000000 ) ) ;
#10 = DIRECTION ( 'NONE',  ( -3.491481338843133355E-15, 1.224646799147353454E-16, -1.000000000000000000 ) ) ;
#11 = AXIS2_PLACEMENT_3D ( 'NONE', #230, #175, #110 ) ;
#12 = APPLICATION_CONTEXT ( 'configuration controlled 3d designs of mechanical parts and assemblies' ) ;
#13 = ADVANCED_FACE ( 'NONE', ( #155, #233 ), #65, .T. ) ;
#14 = APPROVAL_ROLE ( '' ) ;
#15 = APPLICATION_PROTOCOL_DEFINITION ( 'international standard', 'config_control_design', 1994, #205 ) ;
#16 = EDGE_CURVE ( 'NONE', #133, #133, #114, .T. ) ;
#17 = DIRECTION ( 'NONE',  ( 0.0000000000000000000, 0.0000000000000000000, 1.000000000000000000 ) ) ;
#18 = CARTESIAN_POINT ( 'NONE',  ( 5.586370142149013368E-14, 4.849999999999997868, 16.00000000000000000 ) ) ;
#19 = FACE_OUTER_BOUND ( 'NONE', #235, .T. ) ;
#20 = CIRCLE ( 'NONE', #11, 3.000000000000001776 ) ;
#21 = DIRECTION ( 'NONE',  ( 0.0000000000000000000, 1.000000000000000000, 0.0000000000000000000 ) ) ;
#22 = DIRECTION ( 'NONE',  ( 3.491481338843133355E-15, -1.224646799147353454E-16, 1.000000000000000000 ) ) ;
#23 = CARTESIAN_POINT ( 'NONE',  ( -9.299933394825880459E-31, 3.261977527289539476E-32, -2.663606788145492135E-16 ) ) ;
#24 = DIRECTION ( 'NONE',  ( 3.491481338843133355E-15, -1.224646799147353454E-16, 1.000000000000000000 ) ) ;
#25 = APPROVAL_PERSON_ORGANIZATION ( #189, #207, #105 ) ;
#26 = CARTESIAN_POINT ( 'NONE',  ( 0.0000000000000000000, 0.0000000000000000000, 0.0000000000000000000 ) ) ;
#27 = ORIENTED_EDGE ( 'NONE', *, *, #45, .F. ) ;
#28 = EDGE_LOOP ( 'NONE', ( #66 ) ) ;
#29 = PERSON_AND_ORGANIZATION ( #238, #75 ) ;
#30 = APPROVAL_ROLE ( '' ) ;
#31 = CC_DESIGN_PERSON_AND_ORGANIZATION_ASSIGNMENT ( #206, #160, ( #220 ) ) ;
#32 = DATE_AND_TIME ( #88, #57 ) ;
#33 = AXIS2_PLACEMENT_3D ( 'NONE', #188, #17, #166 ) ;
#34 = COORDINATED_UNIVERSAL_TIME_OFFSET ( 1, 0, .AHEAD. ) ;
#35 = ADVANCED_FACE ( 'NONE', ( #113 ), #216, .T. ) ;
#36 = AXIS2_PLACEMENT_3D ( 'NONE', #26, #98, #179 ) ;
#37 = FACE_BOUND ( 'NONE', #201, .T. ) ;
#38 = APPROVAL_PERSON_ORGANIZATION ( #204, #145, #30 ) ;
#39 = CARTESIAN_POINT ( 'NONE',  ( 6.705143410571676085E-14, -2.351847716963982191E-15, 19.20429399400243398 ) ) ;
#40 = CIRCLE ( 'NONE', #99, 2.999999999999988010 ) ;
#41 = UNCERTAINTY_MEASURE_WITH_UNIT (LENGTH_MEASURE( 1.000000000000000082E-05 ), #124, 'distance_accuracy_value', 'NONE');
#42 = CARTESIAN_POINT ( 'NONE',  ( 5.586370142149013368E-14, -1.959434878635765526E-15, 16.00000000000000000 ) ) ;
#43 = VERTEX_POINT ( 'NONE', #242 ) ;
#44 = FACE_OUTER_BOUND ( 'NONE', #219, .T. ) ;
#45 = EDGE_CURVE ( 'NONE', #43, #43, #69, .T. ) ;
#46 = CARTESIAN_POINT ( 'NONE',  ( 1.745740669421563325E-15, -6.123233995736754943E-17, 0.4999999999999990563 ) ) ;
#47 = ORIENTED_EDGE ( 'NONE', *, *, #7, .F. ) ;
#48 = LOCAL_TIME ( 7, 48, 44.00000000000000000, #144 ) ;
#49 = EDGE_LOOP ( 'NONE', ( #82 ) ) ;
#50 = ORIENTED_EDGE ( 'NONE', *, *, #45, .T. ) ;
#51 = COORDINATED_UNIVERSAL_TIME_OFFSET ( 1, 0, .AHEAD. ) ;
#52 = APPROVAL_STATUS ( 'not_yet_approved' ) ;
#53 = PERSON_AND_ORGANIZATION ( #238, #75 ) ;
#54 = VERTEX_POINT ( 'NONE', #72 ) ;
#55 = DIRECTION ( 'NONE',  ( 4.275831445896959482E-31, 1.000000000000000000, 1.224646799147353454E-16 ) ) ;
#56 = FACE_OUTER_BOUND ( 'NONE', #116, .T. ) ;
#57 = LOCAL_TIME ( 7, 48, 44.00000000000000000, #1 ) ;
#58 = DIRECTION ( 'NONE',  ( -3.491481338843133355E-15, 1.224646799147353454E-16, -1.000000000000000000 ) ) ;
#59 = CIRCLE ( 'NONE', #191, 4.349999999999996980 ) ;
#60 = CC_DESIGN_DATE_AND_TIME_ASSIGNMENT ( #182, #209, ( #187 ) ) ;
#61 = DIRECTION ( 'NONE',  ( 0.0000000000000000000, 1.000000000000000000, 0.0000000000000000000 ) ) ;
#62 = CARTESIAN_POINT ( 'NONE',  ( 5.586370142149013368E-14, -1.959434878635765526E-15, 16.00000000000000000 ) ) ;
#63 = CC_DESIGN_PERSON_AND_ORGANIZATION_ASSIGNMENT ( #29, #221, ( #220 ) ) ;
#64 = ORIENTED_EDGE ( 'NONE', *, *, #84, .T. ) ;
#65 = CYLINDRICAL_SURFACE ( 'NONE', #36, 4.849999999999998757 ) ;
#66 = ORIENTED_EDGE ( 'NONE', *, *, #125, .T. ) ;
#67 = SECURITY_CLASSIFICATION_LEVEL ( 'unclassified' ) ;
#68 = EDGE_CURVE ( 'NONE', #54, #54, #40, .T. ) ;
#69 = CIRCLE ( 'NONE', #161, 4.849999999999999645 ) ;
#70 = CONICAL_SURFACE ( 'NONE', #109, 4.849999999999999645, 0.5235987755983001479 ) ;
#71 = CARTESIAN_POINT ( 'NONE',  ( 0.0000000000000000000, 4.349999999999996980, 0.0000000000000000000 ) ) ;
#72 = CARTESIAN_POINT ( 'NONE',  ( 6.705143410571676085E-14, 2.999999999999985789, 19.20429399400243398 ) ) ;
#73 = DIRECTION ( 'NONE',  ( -3.491481338843133355E-15, 1.224646799147353454E-16, -1.000000000000000000 ) ) ;
#74 = CARTESIAN_POINT ( 'NONE',  ( 4.085033166446466404E-13, 2.399999999999987921, 117.0000000000000000 ) ) ;
#75 = ORGANIZATION ( 'UNSPECIFIED', 'UNSPECIFIED', '' ) ;
#76 = DIRECTION ( 'NONE',  ( -4.275831445896959482E-31, -1.000000000000000000, -1.224646799147353454E-16 ) ) ;
#77 = ADVANCED_FACE ( 'NONE', ( #44, #2 ), #224, .T. ) ;
#78 = FACE_OUTER_BOUND ( 'NONE', #115, .T. ) ;
#79 = DIRECTION ( 'NONE',  ( -4.275831445896959482E-31, -1.000000000000000000, -1.224646799147353454E-16 ) ) ;
#80 = DIRECTION ( 'NONE',  ( 3.970989576056157617E-31, 1.000000000000000000, 1.117734198438664708E-16 ) ) ;
#81 = AXIS2_PLACEMENT_3D ( 'NONE', #128, #198, #95 ) ;
#82 = ORIENTED_EDGE ( 'NONE', *, *, #174, .T. ) ;
#83 = APPROVAL_DATE_TIME ( #208, #145 ) ;
#84 = EDGE_CURVE ( 'NONE', #241, #241, #59, .T. ) ;
#85 = MANIFOLD_SOLID_BREP ( 'Corps-Déplacer/Copier1[2]', #222 ) ;
#86 = MANIFOLD_SOLID_BREP ( 'Corps-Déplacer/Copier1[1]', #237 ) ;
#87 = CC_DESIGN_APPROVAL ( #145, ( #187 ) ) ;
#88 = CALENDAR_DATE ( 2021, 3, 12 ) ;
#89 = DATE_AND_TIME ( #106, #5 ) ;
#90 = PERSON_AND_ORGANIZATION_ROLE ( 'design_owner' ) ;
#91 = DIRECTION ( 'NONE',  ( -3.491481338843133355E-15, 1.224646799147353454E-16, -1.000000000000000000 ) ) ;
#92 = CARTESIAN_POINT ( 'NONE',  ( 1.745740669421565100E-15, 4.849999999999998757, 0.4999999999999995559 ) ) ;
#93 = DIRECTION ( 'NONE',  ( -3.491481338843133355E-15, 1.224646799147353454E-16, -1.000000000000000000 ) ) ;
#94 = FACE_OUTER_BOUND ( 'NONE', #157, .T. ) ;
#95 = DIRECTION ( 'NONE',  ( 0.0000000000000000000, 1.000000000000000000, 0.0000000000000000000 ) ) ;
#96 = ORIENTED_EDGE ( 'NONE', *, *, #68, .F. ) ;
#97 = CC_DESIGN_SECURITY_CLASSIFICATION ( #187, ( #220 ) ) ;
#98 = DIRECTION ( 'NONE',  ( -3.491481338843133355E-15, 1.224646799147353454E-16, -1.000000000000000000 ) ) ;
#99 = AXIS2_PLACEMENT_3D ( 'NONE', #39, #218, #132 ) ;
#100 = EDGE_LOOP ( 'NONE', ( #96 ) ) ;
#101 = PERSON_AND_ORGANIZATION ( #238, #75 ) ;
#102 = EDGE_LOOP ( 'NONE', ( #135 ) ) ;
#103 = APPROVAL ( #52, 'UNSPECIFIED' ) ;
#104 = CC_DESIGN_APPROVAL ( #103, ( #220 ) ) ;
#105 = APPROVAL_ROLE ( '' ) ;
#106 = CALENDAR_DATE ( 2021, 3, 12 ) ;
#107 = ADVANCED_FACE ( 'NONE', ( #130 ), #168, .T. ) ;
#108 = FACE_OUTER_BOUND ( 'NONE', #28, .T. ) ;
#109 = AXIS2_PLACEMENT_3D ( 'NONE', #42, #91, #61 ) ;
#110 = DIRECTION ( 'NONE',  ( 0.0000000000000000000, 1.000000000000000000, 0.0000000000000000000 ) ) ;
#111 = FACE_OUTER_BOUND ( 'NONE', #100, .T. ) ;
#112 = CARTESIAN_POINT ( 'NONE',  ( 5.586370142149013368E-14, 3.636917472955003331E-32, 16.00000000000000000 ) ) ;
#113 = FACE_OUTER_BOUND ( 'NONE', #102, .T. ) ;
#114 = CIRCLE ( 'NONE', #186, 2.400000000000002576 ) ;
#115 = EDGE_LOOP ( 'NONE', ( #27 ) ) ;
#116 = EDGE_LOOP ( 'NONE', ( #118 ) ) ;
#117 = COORDINATED_UNIVERSAL_TIME_OFFSET ( 1, 0, .AHEAD. ) ;
#118 = ORIENTED_EDGE ( 'NONE', *, *, #125, .F. ) ;
#119 = ADVANCED_FACE ( 'NONE', ( #37, #78 ), #70, .T. ) ;
#120 = CALENDAR_DATE ( 2021, 3, 12 ) ;
#121 = AXIS2_PLACEMENT_3D ( 'NONE', #228, #24, #76 ) ;
#122 = APPROVAL_STATUS ( 'not_yet_approved' ) ;
#123 = PERSON_AND_ORGANIZATION ( #238, #75 ) ;
#124 =( LENGTH_UNIT ( ) NAMED_UNIT ( * ) SI_UNIT ( .MILLI., .METRE. ) );
#125 = EDGE_CURVE ( 'NONE', #212, #212, #20, .T. ) ;
#126 = CIRCLE ( 'NONE', #199, 4.849999999999998757 ) ;
#127 =( NAMED_UNIT ( * ) SI_UNIT ( $, .STERADIAN. ) SOLID_ANGLE_UNIT ( ) );
#128 = CARTESIAN_POINT ( 'NONE',  ( 4.085033166446466404E-13, -1.432836755002403758E-14, 117.0000000000000000 ) ) ;
#129 =( GEOMETRIC_REPRESENTATION_CONTEXT ( 3 ) GLOBAL_UNCERTAINTY_ASSIGNED_CONTEXT ( ( #41 ) ) GLOBAL_UNIT_ASSIGNED_CONTEXT ( ( #124, #225, #127 ) ) REPRESENTATION_CONTEXT ( 'NONE', 'WORKASPACE' ) );
#130 = FACE_OUTER_BOUND ( 'NONE', #137, .T. ) ;
#131 = AXIS2_PLACEMENT_3D ( 'NONE', #152, #227, #195 ) ;
#132 = DIRECTION ( 'NONE',  ( 0.0000000000000000000, 1.000000000000000000, 0.0000000000000000000 ) ) ;
#133 = VERTEX_POINT ( 'NONE', #74 ) ;
#134 = DIRECTION ( 'NONE',  ( -3.491481338843133355E-15, 1.224646799147353454E-16, -1.000000000000000000 ) ) ;
#135 = ORIENTED_EDGE ( 'NONE', *, *, #174, .F. ) ;
#136 = ORIENTED_EDGE ( 'NONE', *, *, #16, .T. ) ;
#137 = EDGE_LOOP ( 'NONE', ( #64 ) ) ;
#138 = APPROVAL_PERSON_ORGANIZATION ( #101, #103, #14 ) ;
#139 = ORIENTED_EDGE ( 'NONE', *, *, #16, .F. ) ;
#140 = DATE_AND_TIME ( #120, #48 ) ;
#141 = PERSON_AND_ORGANIZATION ( #238, #75 ) ;
#142 = APPROVAL_STATUS ( 'not_yet_approved' ) ;
#143 = AXIS2_PLACEMENT_3D ( 'NONE', #62, #134, #21 ) ;
#144 = COORDINATED_UNIVERSAL_TIME_OFFSET ( 1, 0, .AHEAD. ) ;
#145 = APPROVAL ( #142, 'UNSPECIFIED' ) ;
#146 = APPROVAL_DATE_TIME ( #32, #207 ) ;
#147 = VERTEX_POINT ( 'NONE', #18 ) ;
#148 = CC_DESIGN_PERSON_AND_ORGANIZATION_ASSIGNMENT ( #123, #211, ( #197 ) ) ;
#149 = FACE_BOUND ( 'NONE', #156, .T. ) ;
#150 = PLANE ( 'NONE',  #232 ) ;
#151 = CYLINDRICAL_SURFACE ( 'NONE', #239, 2.999999999999994671 ) ;
#152 = CARTESIAN_POINT ( 'NONE',  ( 4.085033166446466404E-13, 1.799711739194210245E-32, 117.0000000000000000 ) ) ;
#153 = CARTESIAN_POINT ( 'NONE',  ( 5.586370142149013368E-14, -1.959434878635765526E-15, 16.00000000000000000 ) ) ;
#154 = CC_DESIGN_DATE_AND_TIME_ASSIGNMENT ( #89, #165, ( #197 ) ) ;
#155 = FACE_OUTER_BOUND ( 'NONE', #49, .T. ) ;
#156 = EDGE_LOOP ( 'NONE', ( #136 ) ) ;
#157 = EDGE_LOOP ( 'NONE', ( #50 ) ) ;
#158 = SHAPE_DEFINITION_REPRESENTATION ( #172, #226 ) ;
#159 = PERSON_AND_ORGANIZATION_ROLE ( 'classification_officer' ) ;
#160 = PERSON_AND_ORGANIZATION_ROLE ( 'design_supplier' ) ;
#161 = AXIS2_PLACEMENT_3D ( 'NONE', #153, #215, #9 ) ;
#162 = CC_DESIGN_APPROVAL ( #207, ( #197 ) ) ;
#163 = CIRCLE ( 'NONE', #143, 4.849999999999999645 ) ;
#164 = ADVANCED_FACE ( 'NONE', ( #19 ), #192, .F. ) ;
#165 = DATE_TIME_ROLE ( 'creation_date' ) ;
#166 = DIRECTION ( 'NONE',  ( 1.000000000000000000, 0.0000000000000000000, 0.0000000000000000000 ) ) ;
#167 = MECHANICAL_CONTEXT ( 'NONE', #205, 'mechanical' ) ;
#168 = PLANE ( 'NONE',  #178 ) ;
#169 = CARTESIAN_POINT ( 'NONE',  ( -1.859986678965176092E-30, 6.523955054579078952E-32, -5.327213576290984270E-16 ) ) ;
#170 = LOCAL_TIME ( 7, 48, 44.00000000000000000, #51 ) ;
#171 = DIRECTION ( 'NONE',  ( 4.275831445896959482E-31, 1.000000000000000000, 1.224646799147353454E-16 ) ) ;
#172 = PRODUCT_DEFINITION_SHAPE ( 'NONE', 'NONE',  #197 ) ;
#173 = DIRECTION ( 'NONE',  ( 0.0000000000000000000, 1.000000000000000000, 0.0000000000000000000 ) ) ;
#174 = EDGE_CURVE ( 'NONE', #147, #147, #163, .T. ) ;
#175 = DIRECTION ( 'NONE',  ( -3.491481338843133355E-15, 1.224646799147353454E-16, -1.000000000000000000 ) ) ;
#176 = AXIS2_PLACEMENT_3D ( 'NONE', #112, #22, #79 ) ;
#177 = EDGE_LOOP ( 'NONE', ( #234 ) ) ;
#178 = AXIS2_PLACEMENT_3D ( 'NONE', #23, #93, #171 ) ;
#179 = DIRECTION ( 'NONE',  ( 4.275831445896959482E-31, 1.000000000000000000, 1.224646799147353207E-16 ) ) ;
#180 = CALENDAR_DATE ( 2021, 3, 12 ) ;
#181 = ORIENTED_EDGE ( 'NONE', *, *, #7, .T. ) ;
#182 = DATE_AND_TIME ( #180, #202 ) ;
#183 = APPROVAL_DATE_TIME ( #140, #103 ) ;
#184 = PRODUCT_RELATED_PRODUCT_CATEGORY ( 'detail', '', ( #196 ) ) ;
#185 = CALENDAR_DATE ( 2021, 3, 12 ) ;
#186 = AXIS2_PLACEMENT_3D ( 'NONE', #8, #58, #173 ) ;
#187 = SECURITY_CLASSIFICATION ( '', '', #67 ) ;
#188 = CARTESIAN_POINT ( 'NONE',  ( 0.0000000000000000000, 0.0000000000000000000, 0.0000000000000000000 ) ) ;
#189 = PERSON_AND_ORGANIZATION ( #238, #75 ) ;
#190 = DIRECTION ( 'NONE',  ( 4.275831445896959482E-31, 1.000000000000000000, 1.224646799147353454E-16 ) ) ;
#191 = AXIS2_PLACEMENT_3D ( 'NONE', #169, #73, #55 ) ;
#192 = PLANE ( 'NONE',  #131 ) ;
#193 = CC_DESIGN_PERSON_AND_ORGANIZATION_ASSIGNMENT ( #141, #159, ( #187 ) ) ;
#194 = CARTESIAN_POINT ( 'NONE',  ( 0.0000000000000000000, 0.0000000000000000000, 0.0000000000000000000 ) ) ;
#195 = DIRECTION ( 'NONE',  ( 4.275831445896959482E-31, 1.000000000000000000, 1.224646799147353454E-16 ) ) ;
#196 = PRODUCT ( '342402', '342402', '', ( #167 ) ) ;
#197 = PRODUCT_DEFINITION ( 'UNKNOWN', '', #220, #4 ) ;
#198 = DIRECTION ( 'NONE',  ( -3.491481338843133355E-15, 1.224646799147353454E-16, -1.000000000000000000 ) ) ;
#199 = AXIS2_PLACEMENT_3D ( 'NONE', #46, #10, #80 ) ;
#200 = ORIENTED_EDGE ( 'NONE', *, *, #68, .T. ) ;
#201 = EDGE_LOOP ( 'NONE', ( #200 ) ) ;
#202 = LOCAL_TIME ( 7, 48, 44.00000000000000000, #117 ) ;
#203 = CONICAL_SURFACE ( 'NONE', #81, 2.400000000000002576, 0.7853981633974450594 ) ;
#204 = PERSON_AND_ORGANIZATION ( #238, #75 ) ;
#205 = APPLICATION_CONTEXT ( 'configuration controlled 3d designs of mechanical parts and assemblies' ) ;
#206 = PERSON_AND_ORGANIZATION ( #238, #75 ) ;
#207 = APPROVAL ( #122, 'UNSPECIFIED' ) ;
#208 = DATE_AND_TIME ( #185, #170 ) ;
#209 = DATE_TIME_ROLE ( 'classification_date' ) ;
#210 = APPLICATION_PROTOCOL_DEFINITION ( 'international standard', 'config_control_design', 1994, #12 ) ;
#211 = PERSON_AND_ORGANIZATION_ROLE ( 'creator' ) ;
#212 = VERTEX_POINT ( 'NONE', #240 ) ;
#213 = CARTESIAN_POINT ( 'NONE',  ( 5.586370142149013368E-14, 3.636917472955003331E-32, 16.00000000000000000 ) ) ;
#214 = VERTEX_POINT ( 'NONE', #92 ) ;
#215 = DIRECTION ( 'NONE',  ( -3.491481338843133355E-15, 1.224646799147353454E-16, -1.000000000000000000 ) ) ;
#216 = PLANE ( 'NONE',  #176 ) ;
#217 = CC_DESIGN_PERSON_AND_ORGANIZATION_ASSIGNMENT ( #53, #90, ( #196 ) ) ;
#218 = DIRECTION ( 'NONE',  ( -3.491481338843133355E-15, 1.224646799147353454E-16, -1.000000000000000000 ) ) ;
#219 = EDGE_LOOP ( 'NONE', ( #181 ) ) ;
#220 = PRODUCT_DEFINITION_FORMATION_WITH_SPECIFIED_SOURCE ( 'ANY', '', #196, .NOT_KNOWN. ) ;
#221 = PERSON_AND_ORGANIZATION_ROLE ( 'creator' ) ;
#222 = CLOSED_SHELL ( 'NONE', ( #13, #35, #107, #77 ) ) ;
#223 = ADVANCED_FACE ( 'NONE', ( #56, #149 ), #203, .T. ) ;
#224 = CONICAL_SURFACE ( 'NONE', #121, 4.349999999999996980, 0.7853981633974500554 ) ;
#225 =( NAMED_UNIT ( * ) PLANE_ANGLE_UNIT ( ) SI_UNIT ( $, .RADIAN. ) );
#226 = ADVANCED_BREP_SHAPE_REPRESENTATION ( '342402', ( #86, #85, #33 ), #129 ) ;
#227 = DIRECTION ( 'NONE',  ( -3.491481338843133355E-15, 1.224646799147353454E-16, -1.000000000000000000 ) ) ;
#228 = CARTESIAN_POINT ( 'NONE',  ( -1.859986678965176092E-30, 6.523955054579078952E-32, -5.327213576290984270E-16 ) ) ;
#229 = DIRECTION ( 'NONE',  ( -3.491481338843133355E-15, 1.224646799147353454E-16, -1.000000000000000000 ) ) ;
#230 = CARTESIAN_POINT ( 'NONE',  ( 4.064084278413407478E-13, -1.425488874207519270E-14, 116.4000000000000057 ) ) ;
#231 = EDGE_LOOP ( 'NONE', ( #47 ) ) ;
#232 = AXIS2_PLACEMENT_3D ( 'NONE', #213, #3, #6 ) ;
#233 = FACE_OUTER_BOUND ( 'NONE', #231, .T. ) ;
#234 = ORIENTED_EDGE ( 'NONE', *, *, #84, .F. ) ;
#235 = EDGE_LOOP ( 'NONE', ( #139 ) ) ;
#236 = ADVANCED_FACE ( 'NONE', ( #94 ), #150, .F. ) ;
#237 = CLOSED_SHELL ( 'NONE', ( #236, #119, #243, #223, #164 ) ) ;
#238 = PERSON ( 'UNSPECIFIED', 'UNSPECIFIED', 'UNSPECIFIED', ('UNSPECIFIED'), ('UNSPECIFIED'), ('UNSPECIFIED') ) ;
#239 = AXIS2_PLACEMENT_3D ( 'NONE', #194, #229, #190 ) ;
#240 = CARTESIAN_POINT ( 'NONE',  ( 4.064084278413407478E-13, 2.999999999999987566, 116.4000000000000057 ) ) ;
#241 = VERTEX_POINT ( 'NONE', #71 ) ;
#242 = CARTESIAN_POINT ( 'NONE',  ( 5.586370142149013368E-14, 4.849999999999997868, 16.00000000000000000 ) ) ;
#243 = ADVANCED_FACE ( 'NONE', ( #111, #108 ), #151, .T. ) ;
ENDSEC;
END-ISO-10303-21;
