ISO-10303-21;
HEADER;
FILE_DESCRIPTION (( 'STEP AP203' ),
    '1' );
FILE_NAME ('3424.step',
    '2021-12-06T12:58:55',
    ( '' ),
    ( '' ),
    'SwSTEP 2.0',
    'SolidWorks 2019',
    '' );
FILE_SCHEMA (( 'CONFIG_CONTROL_DESIGN' ));
ENDSEC;

DATA;
#1 = PERSON_AND_ORGANIZATION_ROLE ( 'creator' ) ;
#2 = VERTEX_POINT ( 'NONE', #85 ) ;
#3 = EDGE_LOOP ( 'NONE', ( #75 ) ) ;
#4 = FACE_BOUND ( 'NONE', #150, .T. ) ;
#5 = CARTESIAN_POINT ( 'NONE',  ( 6.284666409917631362E-15, -2.204364238465232124E-16, 1.799999999999997602 ) ) ;
#6 = CARTESIAN_POINT ( 'NONE',  ( -8.551662891793915111E-30, 2.999519565323713902E-31, -2.449293598294706119E-15 ) ) ;
#7 = SHAPE_DEFINITION_REPRESENTATION ( #20, #38 ) ;
#8 = PERSON_AND_ORGANIZATION ( #44, #18 ) ;
#9 = PERSON_AND_ORGANIZATION ( #44, #18 ) ;
#10 = PERSON_AND_ORGANIZATION_ROLE ( 'design_owner' ) ;
#11 = CIRCLE ( 'NONE', #111, 20.00000000000000000 ) ;
#12 = CARTESIAN_POINT ( 'NONE',  ( 0.0000000000000000000, 20.00000000000000000, 0.0000000000000000000 ) ) ;
#13 = DIRECTION ( 'NONE',  ( 4.275831445896957731E-31, 1.000000000000000000, 1.224646799147352961E-16 ) ) ;
#14 = PRODUCT_RELATED_PRODUCT_CATEGORY ( 'detail', '', ( #164 ) ) ;
#15 = FACE_OUTER_BOUND ( 'NONE', #112, .T. ) ;
#16 = DIRECTION ( 'NONE',  ( 4.275831445896957731E-31, 1.000000000000000000, 1.224646799147352961E-16 ) ) ;
#17 = EDGE_LOOP ( 'NONE', ( #138 ) ) ;
#18 = ORGANIZATION ( 'UNSPECIFIED', 'UNSPECIFIED', '' ) ;
#19 = APPROVAL_STATUS ( 'not_yet_approved' ) ;
#20 = PRODUCT_DEFINITION_SHAPE ( 'NONE', 'NONE',  #62 ) ;
#21 = PERSON_AND_ORGANIZATION ( #44, #18 ) ;
#22 = APPROVAL_PERSON_ORGANIZATION ( #106, #57, #64 ) ;
#23 = AXIS2_PLACEMENT_3D ( 'NONE', #137, #122, #16 ) ;
#24 = APPROVAL_ROLE ( '' ) ;
#25 = DATE_AND_TIME ( #66, #41 ) ;
#26 = APPLICATION_PROTOCOL_DEFINITION ( 'international standard', 'config_control_design', 1994, #109 ) ;
#27 = AXIS2_PLACEMENT_3D ( 'NONE', #69, #90, #30 ) ;
#28 = DESIGN_CONTEXT ( 'detailed design', #118, 'design' ) ;
#29 = CC_DESIGN_SECURITY_CLASSIFICATION ( #157, ( #119 ) ) ;
#30 = DIRECTION ( 'NONE',  ( 4.275831445896957731E-31, 1.000000000000000000, 1.224646799147352961E-16 ) ) ;
#31 = DIRECTION ( 'NONE',  ( -3.491481338843133355E-15, 1.224646799147352961E-16, -1.000000000000000000 ) ) ;
#32 = CYLINDRICAL_SURFACE ( 'NONE', #23, 5.000000000000000000 ) ;
#33 = APPROVAL_DATE_TIME ( #126, #57 ) ;
#34 = ORIENTED_EDGE ( 'NONE', *, *, #148, .T. ) ;
#35 = DIRECTION ( 'NONE',  ( -3.491481338843133355E-15, 1.224646799147352961E-16, -1.000000000000000000 ) ) ;
#36 = APPROVAL ( #134, 'UNSPECIFIED' ) ;
#37 = APPROVAL_DATE_TIME ( #141, #76 ) ;
#38 = ADVANCED_BREP_SHAPE_REPRESENTATION ( '3424', ( #81, #166 ), #53 ) ;
#39 = COORDINATED_UNIVERSAL_TIME_OFFSET ( 1, 0, .AHEAD. ) ;
#40 = MECHANICAL_CONTEXT ( 'NONE', #109, 'mechanical' ) ;
#41 = LOCAL_TIME ( 13, 58, 55.00000000000000000, #39 ) ;
#42 = DIRECTION ( 'NONE',  ( 0.0000000000000000000, 0.0000000000000000000, 1.000000000000000000 ) ) ;
#43 = VERTEX_POINT ( 'NONE', #147 ) ;
#44 = PERSON ( 'UNSPECIFIED', 'UNSPECIFIED', 'UNSPECIFIED', ('UNSPECIFIED'), ('UNSPECIFIED'), ('UNSPECIFIED') ) ;
#45 = ORIENTED_EDGE ( 'NONE', *, *, #51, .T. ) ;
#46 = LOCAL_TIME ( 13, 58, 55.00000000000000000, #107 ) ;
#47 = ORIENTED_EDGE ( 'NONE', *, *, #159, .T. ) ;
#48 = CIRCLE ( 'NONE', #93, 20.00000000000000000 ) ;
#49 = PLANE ( 'NONE',  #143 ) ;
#50 = CYLINDRICAL_SURFACE ( 'NONE', #67, 20.00000000000000000 ) ;
#51 = EDGE_CURVE ( 'NONE', #121, #121, #72, .T. ) ;
#52 = SECURITY_CLASSIFICATION_LEVEL ( 'unclassified' ) ;
#53 =( GEOMETRIC_REPRESENTATION_CONTEXT ( 3 ) GLOBAL_UNCERTAINTY_ASSIGNED_CONTEXT ( ( #99 ) ) GLOBAL_UNIT_ASSIGNED_CONTEXT ( ( #120, #56, #117 ) ) REPRESENTATION_CONTEXT ( 'NONE', 'WORKASPACE' ) );
#54 = DATE_AND_TIME ( #128, #136 ) ;
#55 = CC_DESIGN_APPROVAL ( #57, ( #119 ) ) ;
#56 =( NAMED_UNIT ( * ) PLANE_ANGLE_UNIT ( ) SI_UNIT ( $, .RADIAN. ) );
#57 = APPROVAL ( #133, 'UNSPECIFIED' ) ;
#58 = LOCAL_TIME ( 13, 58, 55.00000000000000000, #91 ) ;
#59 = DIRECTION ( 'NONE',  ( 3.491481338843133355E-15, -1.224646799147352961E-16, 1.000000000000000000 ) ) ;
#60 = DIRECTION ( 'NONE',  ( -3.491481338843133355E-15, 1.224646799147352961E-16, -1.000000000000000000 ) ) ;
#61 = DIRECTION ( 'NONE',  ( 4.622231866529366047E-31, 1.000000000000000000, 1.301042606982605321E-16 ) ) ;
#62 = PRODUCT_DEFINITION ( 'UNKNOWN', '', #119, #28 ) ;
#63 = DATE_TIME_ROLE ( 'creation_date' ) ;
#64 = APPROVAL_ROLE ( '' ) ;
#65 = PERSON_AND_ORGANIZATION_ROLE ( 'creator' ) ;
#66 = CALENDAR_DATE ( 2021, 6, 12 ) ;
#67 = AXIS2_PLACEMENT_3D ( 'NONE', #70, #71, #103 ) ;
#68 = FACE_OUTER_BOUND ( 'NONE', #17, .T. ) ;
#69 = CARTESIAN_POINT ( 'NONE',  ( -3.206873584422719042E-30, 5.000000000000000000, -9.184850993605147944E-16 ) ) ;
#70 = CARTESIAN_POINT ( 'NONE',  ( 0.0000000000000000000, 0.0000000000000000000, 0.0000000000000000000 ) ) ;
#71 = DIRECTION ( 'NONE',  ( -3.491481338843133355E-15, 1.224646799147352961E-16, -1.000000000000000000 ) ) ;
#72 = CIRCLE ( 'NONE', #124, 5.000000000000000000 ) ;
#73 = ADVANCED_FACE ( 'NONE', ( #153, #113 ), #149, .T. ) ;
#74 = DATE_AND_TIME ( #88, #78 ) ;
#75 = ORIENTED_EDGE ( 'NONE', *, *, #108, .T. ) ;
#76 = APPROVAL ( #19, 'UNSPECIFIED' ) ;
#77 = CALENDAR_DATE ( 2021, 6, 12 ) ;
#78 = LOCAL_TIME ( 13, 58, 55.00000000000000000, #130 ) ;
#79 = CALENDAR_DATE ( 2021, 6, 12 ) ;
#80 = COORDINATED_UNIVERSAL_TIME_OFFSET ( 1, 0, .AHEAD. ) ;
#81 = MANIFOLD_SOLID_BREP ( 'Corps-Déplacer/Copier1', #155 ) ;
#82 = ADVANCED_FACE ( 'NONE', ( #123, #15 ), #32, .F. ) ;
#83 = DIRECTION ( 'NONE',  ( 1.000000000000000000, 0.0000000000000000000, 0.0000000000000000000 ) ) ;
#84 = CC_DESIGN_PERSON_AND_ORGANIZATION_ASSIGNMENT ( #169, #142, ( #157 ) ) ;
#85 = CARTESIAN_POINT ( 'NONE',  ( 6.284666409917640040E-15, 20.00000000000000000, 1.800000000000000044 ) ) ;
#86 = ORIENTED_EDGE ( 'NONE', *, *, #148, .F. ) ;
#87 = ORIENTED_EDGE ( 'NONE', *, *, #108, .F. ) ;
#88 = CALENDAR_DATE ( 2021, 6, 12 ) ;
#89 = APPROVAL_PERSON_ORGANIZATION ( #154, #76, #167 ) ;
#90 = DIRECTION ( 'NONE',  ( -3.491481338843133355E-15, 1.224646799147352961E-16, -1.000000000000000000 ) ) ;
#91 = COORDINATED_UNIVERSAL_TIME_OFFSET ( 1, 0, .AHEAD. ) ;
#92 = DIRECTION ( 'NONE',  ( 4.275831445896957731E-31, 1.000000000000000000, 1.224646799147352961E-16 ) ) ;
#93 = AXIS2_PLACEMENT_3D ( 'NONE', #5, #60, #139 ) ;
#94 = CARTESIAN_POINT ( 'NONE',  ( 0.0000000000000000000, 0.0000000000000000000, 0.0000000000000000000 ) ) ;
#95 = CC_DESIGN_PERSON_AND_ORGANIZATION_ASSIGNMENT ( #132, #10, ( #164 ) ) ;
#96 = ADVANCED_FACE ( 'NONE', ( #110, #68 ), #50, .T. ) ;
#97 = ADVANCED_FACE ( 'NONE', ( #4, #165 ), #49, .T. ) ;
#98 = CC_DESIGN_APPROVAL ( #76, ( #157 ) ) ;
#99 = UNCERTAINTY_MEASURE_WITH_UNIT (LENGTH_MEASURE( 1.000000000000000082E-05 ), #120, 'distance_accuracy_value', 'NONE');
#100 = EDGE_LOOP ( 'NONE', ( #86 ) ) ;
#101 = CIRCLE ( 'NONE', #161, 5.000000000000000000 ) ;
#102 = CC_DESIGN_DATE_AND_TIME_ASSIGNMENT ( #54, #63, ( #62 ) ) ;
#103 = DIRECTION ( 'NONE',  ( 4.275831445896957731E-31, 1.000000000000000000, 1.224646799147352961E-16 ) ) ;
#104 = CARTESIAN_POINT ( 'NONE',  ( -2.137915722948478778E-30, 7.498798913309284755E-32, -6.123233995736765296E-16 ) ) ;
#105 = CARTESIAN_POINT ( 'NONE',  ( 6.284666409917637673E-15, -2.204364238465234590E-16, 1.799999999999999378 ) ) ;
#106 = PERSON_AND_ORGANIZATION ( #44, #18 ) ;
#107 = COORDINATED_UNIVERSAL_TIME_OFFSET ( 1, 0, .AHEAD. ) ;
#108 = EDGE_CURVE ( 'NONE', #43, #43, #101, .T. ) ;
#109 = APPLICATION_CONTEXT ( 'configuration controlled 3d designs of mechanical parts and assemblies' ) ;
#110 = FACE_OUTER_BOUND ( 'NONE', #125, .T. ) ;
#111 = AXIS2_PLACEMENT_3D ( 'NONE', #6, #35, #13 ) ;
#112 = EDGE_LOOP ( 'NONE', ( #163 ) ) ;
#113 = FACE_BOUND ( 'NONE', #152, .T. ) ;
#114 = PERSON_AND_ORGANIZATION_ROLE ( 'design_supplier' ) ;
#115 = APPROVAL_PERSON_ORGANIZATION ( #156, #36, #24 ) ;
#116 = APPROVAL_DATE_TIME ( #25, #36 ) ;
#117 =( NAMED_UNIT ( * ) SI_UNIT ( $, .STERADIAN. ) SOLID_ANGLE_UNIT ( ) );
#118 = APPLICATION_CONTEXT ( 'configuration controlled 3d designs of mechanical parts and assemblies' ) ;
#119 = PRODUCT_DEFINITION_FORMATION_WITH_SPECIFIED_SOURCE ( 'ANY', '', #164, .NOT_KNOWN. ) ;
#120 =( LENGTH_UNIT ( ) NAMED_UNIT ( * ) SI_UNIT ( .MILLI., .METRE. ) );
#121 = VERTEX_POINT ( 'NONE', #129 ) ;
#122 = DIRECTION ( 'NONE',  ( -3.491481338843133355E-15, 1.224646799147352961E-16, -1.000000000000000000 ) ) ;
#123 = FACE_OUTER_BOUND ( 'NONE', #3, .T. ) ;
#124 = AXIS2_PLACEMENT_3D ( 'NONE', #105, #31, #61 ) ;
#125 = EDGE_LOOP ( 'NONE', ( #34 ) ) ;
#126 = DATE_AND_TIME ( #77, #46 ) ;
#127 = DIRECTION ( 'NONE',  ( -3.491481338843133355E-15, 1.224646799147352961E-16, -1.000000000000000000 ) ) ;
#128 = CALENDAR_DATE ( 2021, 6, 12 ) ;
#129 = CARTESIAN_POINT ( 'NONE',  ( 6.284666409917640040E-15, 5.000000000000000000, 1.800000000000000044 ) ) ;
#130 = COORDINATED_UNIVERSAL_TIME_OFFSET ( 1, 0, .AHEAD. ) ;
#131 = DATE_TIME_ROLE ( 'classification_date' ) ;
#132 = PERSON_AND_ORGANIZATION ( #44, #18 ) ;
#133 = APPROVAL_STATUS ( 'not_yet_approved' ) ;
#134 = APPROVAL_STATUS ( 'not_yet_approved' ) ;
#135 = VERTEX_POINT ( 'NONE', #12 ) ;
#136 = LOCAL_TIME ( 13, 58, 55.00000000000000000, #80 ) ;
#137 = CARTESIAN_POINT ( 'NONE',  ( 0.0000000000000000000, 0.0000000000000000000, 0.0000000000000000000 ) ) ;
#138 = ORIENTED_EDGE ( 'NONE', *, *, #159, .F. ) ;
#139 = DIRECTION ( 'NONE',  ( 4.237045877651918877E-31, 1.000000000000000000, 1.192622389734054877E-16 ) ) ;
#140 = CC_DESIGN_PERSON_AND_ORGANIZATION_ASSIGNMENT ( #21, #114, ( #119 ) ) ;
#141 = DATE_AND_TIME ( #79, #58 ) ;
#142 = PERSON_AND_ORGANIZATION_ROLE ( 'classification_officer' ) ;
#143 = AXIS2_PLACEMENT_3D ( 'NONE', #160, #59, #151 ) ;
#144 = CC_DESIGN_PERSON_AND_ORGANIZATION_ASSIGNMENT ( #8, #65, ( #119 ) ) ;
#145 = CC_DESIGN_PERSON_AND_ORGANIZATION_ASSIGNMENT ( #9, #1, ( #62 ) ) ;
#146 = APPLICATION_PROTOCOL_DEFINITION ( 'international standard', 'config_control_design', 1994, #118 ) ;
#147 = CARTESIAN_POINT ( 'NONE',  ( 0.0000000000000000000, 5.000000000000000000, 0.0000000000000000000 ) ) ;
#148 = EDGE_CURVE ( 'NONE', #2, #2, #48, .T. ) ;
#149 = PLANE ( 'NONE',  #27 ) ;
#150 = EDGE_LOOP ( 'NONE', ( #45 ) ) ;
#151 = DIRECTION ( 'NONE',  ( -4.275831445896957731E-31, -1.000000000000000000, -1.224646799147352961E-16 ) ) ;
#152 = EDGE_LOOP ( 'NONE', ( #87 ) ) ;
#153 = FACE_OUTER_BOUND ( 'NONE', #162, .T. ) ;
#154 = PERSON_AND_ORGANIZATION ( #44, #18 ) ;
#155 = CLOSED_SHELL ( 'NONE', ( #73, #96, #97, #82 ) ) ;
#156 = PERSON_AND_ORGANIZATION ( #44, #18 ) ;
#157 = SECURITY_CLASSIFICATION ( '', '', #52 ) ;
#158 = CC_DESIGN_DATE_AND_TIME_ASSIGNMENT ( #74, #131, ( #157 ) ) ;
#159 = EDGE_CURVE ( 'NONE', #135, #135, #11, .T. ) ;
#160 = CARTESIAN_POINT ( 'NONE',  ( 6.284666409917636884E-15, 5.000000000000000000, 1.799999999999999156 ) ) ;
#161 = AXIS2_PLACEMENT_3D ( 'NONE', #104, #127, #92 ) ;
#162 = EDGE_LOOP ( 'NONE', ( #47 ) ) ;
#163 = ORIENTED_EDGE ( 'NONE', *, *, #51, .F. ) ;
#164 = PRODUCT ( '3424', '3424', '', ( #40 ) ) ;
#165 = FACE_OUTER_BOUND ( 'NONE', #100, .T. ) ;
#166 = AXIS2_PLACEMENT_3D ( 'NONE', #94, #42, #83 ) ;
#167 = APPROVAL_ROLE ( '' ) ;
#168 = CC_DESIGN_APPROVAL ( #36, ( #62 ) ) ;
#169 = PERSON_AND_ORGANIZATION ( #44, #18 ) ;
ENDSEC;
END-ISO-10303-21;
