ISO-10303-21;
HEADER;
FILE_DESCRIPTION (( 'STEP AP203' ),
    '1' );
FILE_NAME ('342382.step',
    '2021-12-03T06:48:43',
    ( '' ),
    ( '' ),
    'SwSTEP 2.0',
    'SolidWorks 2019',
    '' );
FILE_SCHEMA (( 'CONFIG_CONTROL_DESIGN' ));
ENDSEC;

DATA;
#1 = AXIS2_PLACEMENT_3D ( 'NONE', #195, #26, #151 ) ;
#2 = CC_DESIGN_APPROVAL ( #190, ( #62 ) ) ;
#3 = PERSON_AND_ORGANIZATION_ROLE ( 'classification_officer' ) ;
#4 = AXIS2_PLACEMENT_3D ( 'NONE', #218, #174, #229 ) ;
#5 = PERSON_AND_ORGANIZATION_ROLE ( 'design_supplier' ) ;
#6 = FACE_BOUND ( 'NONE', #128, .T. ) ;
#7 = COORDINATED_UNIVERSAL_TIME_OFFSET ( 1, 0, .AHEAD. ) ;
#8 = DIRECTION ( 'NONE',  ( -3.491481338843133355E-15, 1.224646799147353454E-16, -1.000000000000000000 ) ) ;
#9 = CALENDAR_DATE ( 2021, 3, 12 ) ;
#10 = CARTESIAN_POINT ( 'NONE',  ( 6.644669179846127261E-14, -2.330636212189484462E-15, 19.03108891324554719 ) ) ;
#11 = APPROVAL_PERSON_ORGANIZATION ( #191, #167, #211 ) ;
#12 = DIRECTION ( 'NONE',  ( 3.491481338843133355E-15, -1.224646799147353454E-16, 1.000000000000000000 ) ) ;
#13 = PERSON_AND_ORGANIZATION_ROLE ( 'creator' ) ;
#14 = VERTEX_POINT ( 'NONE', #82 ) ;
#15 = COORDINATED_UNIVERSAL_TIME_OFFSET ( 1, 0, .AHEAD. ) ;
#16 = ORIENTED_EDGE ( 'NONE', *, *, #61, .F. ) ;
#17 = EDGE_LOOP ( 'NONE', ( #91 ) ) ;
#18 = CARTESIAN_POINT ( 'NONE',  ( 4.064084278413407478E-13, -1.425488874207519270E-14, 116.4000000000000057 ) ) ;
#19 = AXIS2_PLACEMENT_3D ( 'NONE', #152, #153, #156 ) ;
#20 = EDGE_CURVE ( 'NONE', #14, #14, #154, .T. ) ;
#21 = ADVANCED_FACE ( 'NONE', ( #38, #76 ), #221, .T. ) ;
#22 = PRODUCT_RELATED_PRODUCT_CATEGORY ( 'detail', '', ( #237 ) ) ;
#23 = APPLICATION_CONTEXT ( 'configuration controlled 3d designs of mechanical parts and assemblies' ) ;
#24 = COORDINATED_UNIVERSAL_TIME_OFFSET ( 1, 0, .AHEAD. ) ;
#25 = CALENDAR_DATE ( 2021, 3, 12 ) ;
#26 = DIRECTION ( 'NONE',  ( -3.491481338843133355E-15, 1.224646799147353454E-16, -1.000000000000000000 ) ) ;
#27 = FACE_OUTER_BOUND ( 'NONE', #220, .T. ) ;
#28 = FACE_OUTER_BOUND ( 'NONE', #222, .T. ) ;
#29 = VERTEX_POINT ( 'NONE', #213 ) ;
#30 = CARTESIAN_POINT ( 'NONE',  ( -1.817228364506206663E-30, 6.373979076312894286E-32, -5.204748896376249713E-16 ) ) ;
#31 = CIRCLE ( 'NONE', #97, 4.249999999999997335 ) ;
#32 = CARTESIAN_POINT ( 'NONE',  ( 0.0000000000000000000, 0.0000000000000000000, 0.0000000000000000000 ) ) ;
#33 = AXIS2_PLACEMENT_3D ( 'NONE', #32, #219, #37 ) ;
#34 = DIRECTION ( 'NONE',  ( 4.275831445896959482E-31, 1.000000000000000000, 1.224646799147353700E-16 ) ) ;
#35 = MECHANICAL_CONTEXT ( 'NONE', #125, 'mechanical' ) ;
#36 = ORIENTED_EDGE ( 'NONE', *, *, #78, .T. ) ;
#37 = DIRECTION ( 'NONE',  ( 1.000000000000000000, 0.0000000000000000000, 0.0000000000000000000 ) ) ;
#38 = FACE_OUTER_BOUND ( 'NONE', #201, .T. ) ;
#39 = APPROVAL_PERSON_ORGANIZATION ( #64, #182, #209 ) ;
#40 = EDGE_LOOP ( 'NONE', ( #55 ) ) ;
#41 = ADVANCED_FACE ( 'NONE', ( #28 ), #99, .F. ) ;
#42 = CC_DESIGN_PERSON_AND_ORGANIZATION_ASSIGNMENT ( #175, #54, ( #237 ) ) ;
#43 = DESIGN_CONTEXT ( 'detailed design', #23, 'design' ) ;
#44 = CONICAL_SURFACE ( 'NONE', #70, 2.400000000000002576, 0.7853981633974450594 ) ;
#45 = APPROVAL_STATUS ( 'not_yet_approved' ) ;
#46 = LOCAL_TIME ( 7, 48, 43.00000000000000000, #7 ) ;
#47 = DIRECTION ( 'NONE',  ( -4.275831445896959482E-31, -1.000000000000000000, -1.224646799147353454E-16 ) ) ;
#48 = CLOSED_SHELL ( 'NONE', ( #21, #77, #189, #216 ) ) ;
#49 = DIRECTION ( 'NONE',  ( -3.491481338843133355E-15, 1.224646799147353454E-16, -1.000000000000000000 ) ) ;
#50 = FACE_OUTER_BOUND ( 'NONE', #17, .T. ) ;
#51 = APPROVAL_ROLE ( '' ) ;
#52 = FACE_BOUND ( 'NONE', #58, .T. ) ;
#53 = AXIS2_PLACEMENT_3D ( 'NONE', #234, #170, #71 ) ;
#54 = PERSON_AND_ORGANIZATION_ROLE ( 'design_owner' ) ;
#55 = ORIENTED_EDGE ( 'NONE', *, *, #20, .T. ) ;
#56 = APPROVAL_STATUS ( 'not_yet_approved' ) ;
#57 = ORIENTED_EDGE ( 'NONE', *, *, #148, .T. ) ;
#58 = EDGE_LOOP ( 'NONE', ( #242 ) ) ;
#59 = ADVANCED_FACE ( 'NONE', ( #98, #27 ), #168, .T. ) ;
#60 = AXIS2_PLACEMENT_3D ( 'NONE', #88, #134, #47 ) ;
#61 = EDGE_CURVE ( 'NONE', #65, #65, #121, .T. ) ;
#62 = PRODUCT_DEFINITION ( 'UNKNOWN', '', #113, #43 ) ;
#63 = SHAPE_DEFINITION_REPRESENTATION ( #199, #226 ) ;
#64 = PERSON_AND_ORGANIZATION ( #86, #67 ) ;
#65 = VERTEX_POINT ( 'NONE', #210 ) ;
#66 = DIRECTION ( 'NONE',  ( -3.491481338843133355E-15, 1.224646799147353454E-16, -1.000000000000000000 ) ) ;
#67 = ORGANIZATION ( 'UNSPECIFIED', 'UNSPECIFIED', '' ) ;
#68 = COORDINATED_UNIVERSAL_TIME_OFFSET ( 1, 0, .AHEAD. ) ;
#69 = PLANE ( 'NONE',  #60 ) ;
#70 = AXIS2_PLACEMENT_3D ( 'NONE', #139, #215, #178 ) ;
#71 = DIRECTION ( 'NONE',  ( 0.0000000000000000000, 1.000000000000000000, 0.0000000000000000000 ) ) ;
#72 = CARTESIAN_POINT ( 'NONE',  ( 1.745740669421564903E-15, -6.123233995736761105E-17, 0.4999999999999994449 ) ) ;
#73 = AXIS2_PLACEMENT_3D ( 'NONE', #72, #141, #133 ) ;
#74 =( NAMED_UNIT ( * ) PLANE_ANGLE_UNIT ( ) SI_UNIT ( $, .RADIAN. ) );
#75 = ORIENTED_EDGE ( 'NONE', *, *, #20, .F. ) ;
#76 = FACE_OUTER_BOUND ( 'NONE', #94, .T. ) ;
#77 = ADVANCED_FACE ( 'NONE', ( #137 ), #231, .T. ) ;
#78 = EDGE_CURVE ( 'NONE', #159, #159, #208, .T. ) ;
#79 = AXIS2_PLACEMENT_3D ( 'NONE', #116, #12, #90 ) ;
#80 = APPROVAL_DATE_TIME ( #84, #182 ) ;
#81 = CALENDAR_DATE ( 2021, 3, 12 ) ;
#82 = CARTESIAN_POINT ( 'NONE',  ( 4.064084278413407478E-13, 2.999999999999987566, 116.4000000000000057 ) ) ;
#83 = CARTESIAN_POINT ( 'NONE',  ( -9.086141822531033317E-31, 3.186989538156447143E-32, -2.602374448188124857E-16 ) ) ;
#84 = DATE_AND_TIME ( #25, #135 ) ;
#85 = FACE_OUTER_BOUND ( 'NONE', #93, .T. ) ;
#86 = PERSON ( 'UNSPECIFIED', 'UNSPECIFIED', 'UNSPECIFIED', ('UNSPECIFIED'), ('UNSPECIFIED'), ('UNSPECIFIED') ) ;
#87 = AXIS2_PLACEMENT_3D ( 'NONE', #18, #163, #109 ) ;
#88 = CARTESIAN_POINT ( 'NONE',  ( 5.586370142149013368E-14, 3.561929483821910998E-32, 16.00000000000000000 ) ) ;
#89 = COORDINATED_UNIVERSAL_TIME_OFFSET ( 1, 0, .AHEAD. ) ;
#90 = DIRECTION ( 'NONE',  ( -4.275831445896959482E-31, -1.000000000000000000, -1.224646799147353700E-16 ) ) ;
#91 = ORIENTED_EDGE ( 'NONE', *, *, #105, .F. ) ;
#92 =( NAMED_UNIT ( * ) SI_UNIT ( $, .STERADIAN. ) SOLID_ANGLE_UNIT ( ) );
#93 = EDGE_LOOP ( 'NONE', ( #36 ) ) ;
#94 = EDGE_LOOP ( 'NONE', ( #240 ) ) ;
#95 = DATE_AND_TIME ( #81, #146 ) ;
#96 = SECURITY_CLASSIFICATION_LEVEL ( 'unclassified' ) ;
#97 = AXIS2_PLACEMENT_3D ( 'NONE', #30, #228, #34 ) ;
#98 = FACE_BOUND ( 'NONE', #204, .T. ) ;
#99 = PLANE ( 'NONE',  #165 ) ;
#100 = DIRECTION ( 'NONE',  ( 0.0000000000000000000, 1.000000000000000000, 0.0000000000000000000 ) ) ;
#101 = AXIS2_PLACEMENT_3D ( 'NONE', #83, #49, #176 ) ;
#102 = CARTESIAN_POINT ( 'NONE',  ( 0.0000000000000000000, 0.0000000000000000000, 0.0000000000000000000 ) ) ;
#103 =( GEOMETRIC_REPRESENTATION_CONTEXT ( 3 ) GLOBAL_UNCERTAINTY_ASSIGNED_CONTEXT ( ( #224 ) ) GLOBAL_UNIT_ASSIGNED_CONTEXT ( ( #236, #74, #92 ) ) REPRESENTATION_CONTEXT ( 'NONE', 'WORKASPACE' ) );
#104 = APPROVAL_DATE_TIME ( #120, #190 ) ;
#105 = EDGE_CURVE ( 'NONE', #155, #155, #162, .T. ) ;
#106 = CC_DESIGN_PERSON_AND_ORGANIZATION_ASSIGNMENT ( #177, #13, ( #62 ) ) ;
#107 = FACE_OUTER_BOUND ( 'NONE', #110, .T. ) ;
#108 = CARTESIAN_POINT ( 'NONE',  ( 1.745740669421566678E-15, 4.749999999999999112, 0.5000000000000000000 ) ) ;
#109 = DIRECTION ( 'NONE',  ( 0.0000000000000000000, 1.000000000000000000, 0.0000000000000000000 ) ) ;
#110 = EDGE_LOOP ( 'NONE', ( #144 ) ) ;
#111 = ORIENTED_EDGE ( 'NONE', *, *, #105, .T. ) ;
#112 = ORIENTED_EDGE ( 'NONE', *, *, #233, .F. ) ;
#113 = PRODUCT_DEFINITION_FORMATION_WITH_SPECIFIED_SOURCE ( 'ANY', '', #237, .NOT_KNOWN. ) ;
#114 = FACE_OUTER_BOUND ( 'NONE', #143, .T. ) ;
#115 = DIRECTION ( 'NONE',  ( 4.275831445896959482E-31, 1.000000000000000000, 1.224646799147353454E-16 ) ) ;
#116 = CARTESIAN_POINT ( 'NONE',  ( -1.817228364506206663E-30, 6.373979076312894286E-32, -5.204748896376249713E-16 ) ) ;
#117 = CARTESIAN_POINT ( 'NONE',  ( 5.586370142149013368E-14, -1.959434878635765526E-15, 16.00000000000000000 ) ) ;
#118 = EDGE_CURVE ( 'NONE', #142, #142, #130, .T. ) ;
#119 = CC_DESIGN_PERSON_AND_ORGANIZATION_ASSIGNMENT ( #166, #131, ( #113 ) ) ;
#120 = DATE_AND_TIME ( #138, #223 ) ;
#121 = CIRCLE ( 'NONE', #205, 4.750000000000000000 ) ;
#122 = DIRECTION ( 'NONE',  ( 4.275831445896959482E-31, 1.000000000000000000, 1.224646799147353454E-16 ) ) ;
#123 = APPLICATION_PROTOCOL_DEFINITION ( 'international standard', 'config_control_design', 1994, #23 ) ;
#124 = ORIENTED_EDGE ( 'NONE', *, *, #233, .T. ) ;
#125 = APPLICATION_CONTEXT ( 'configuration controlled 3d designs of mechanical parts and assemblies' ) ;
#126 = PERSON_AND_ORGANIZATION ( #86, #67 ) ;
#127 = MANIFOLD_SOLID_BREP ( 'Corps-Déplacer/Copier1[1]', #232 ) ;
#128 = EDGE_LOOP ( 'NONE', ( #124 ) ) ;
#129 = APPROVAL_PERSON_ORGANIZATION ( #126, #190, #51 ) ;
#130 = CIRCLE ( 'NONE', #73, 4.749999999999999112 ) ;
#131 = PERSON_AND_ORGANIZATION_ROLE ( 'creator' ) ;
#132 = SECURITY_CLASSIFICATION ( '', '', #96 ) ;
#133 = DIRECTION ( 'NONE',  ( 4.054589356604707566E-31, 1.000000000000000000, 1.141265444721583757E-16 ) ) ;
#134 = DIRECTION ( 'NONE',  ( 3.491481338843133355E-15, -1.224646799147353454E-16, 1.000000000000000000 ) ) ;
#135 = LOCAL_TIME ( 7, 48, 43.00000000000000000, #68 ) ;
#136 = CARTESIAN_POINT ( 'NONE',  ( 5.586370142149013368E-14, 4.749999999999998224, 16.00000000000000000 ) ) ;
#137 = FACE_OUTER_BOUND ( 'NONE', #180, .T. ) ;
#138 = CALENDAR_DATE ( 2021, 3, 12 ) ;
#139 = CARTESIAN_POINT ( 'NONE',  ( 4.085033166446466404E-13, -1.432836755002403758E-14, 117.0000000000000000 ) ) ;
#140 = CIRCLE ( 'NONE', #53, 2.400000000000002576 ) ;
#141 = DIRECTION ( 'NONE',  ( -3.491481338843133355E-15, 1.224646799147353454E-16, -1.000000000000000000 ) ) ;
#142 = VERTEX_POINT ( 'NONE', #108 ) ;
#143 = EDGE_LOOP ( 'NONE', ( #57 ) ) ;
#144 = ORIENTED_EDGE ( 'NONE', *, *, #118, .T. ) ;
#145 = DIRECTION ( 'NONE',  ( 4.275831445896959482E-31, 1.000000000000000000, 1.224646799147353454E-16 ) ) ;
#146 = LOCAL_TIME ( 7, 48, 43.00000000000000000, #24 ) ;
#147 = ADVANCED_FACE ( 'NONE', ( #85 ), #69, .F. ) ;
#148 = EDGE_CURVE ( 'NONE', #179, #179, #31, .T. ) ;
#149 = DATE_AND_TIME ( #9, #46 ) ;
#150 = AXIS2_PLACEMENT_3D ( 'NONE', #10, #8, #100 ) ;
#151 = DIRECTION ( 'NONE',  ( 0.0000000000000000000, 1.000000000000000000, 0.0000000000000000000 ) ) ;
#152 = CARTESIAN_POINT ( 'NONE',  ( 5.586370142149013368E-14, 3.561929483821910998E-32, 16.00000000000000000 ) ) ;
#153 = DIRECTION ( 'NONE',  ( 3.491481338843133355E-15, -1.224646799147353454E-16, 1.000000000000000000 ) ) ;
#154 = CIRCLE ( 'NONE', #87, 3.000000000000001776 ) ;
#155 = VERTEX_POINT ( 'NONE', #158 ) ;
#156 = DIRECTION ( 'NONE',  ( -4.275831445896959482E-31, -1.000000000000000000, -1.224646799147353454E-16 ) ) ;
#157 = AXIS2_PLACEMENT_3D ( 'NONE', #184, #243, #145 ) ;
#158 = CARTESIAN_POINT ( 'NONE',  ( 6.644669179846127261E-14, 2.999999999999985789, 19.03108891324554719 ) ) ;
#159 = VERTEX_POINT ( 'NONE', #136 ) ;
#160 = DATE_AND_TIME ( #200, #188 ) ;
#161 = ADVANCED_FACE ( 'NONE', ( #50, #198 ), #194, .T. ) ;
#162 = CIRCLE ( 'NONE', #150, 2.999999999999988010 ) ;
#163 = DIRECTION ( 'NONE',  ( -3.491481338843133355E-15, 1.224646799147353454E-16, -1.000000000000000000 ) ) ;
#164 = CC_DESIGN_SECURITY_CLASSIFICATION ( #132, ( #113 ) ) ;
#165 = AXIS2_PLACEMENT_3D ( 'NONE', #214, #192, #122 ) ;
#166 = PERSON_AND_ORGANIZATION ( #86, #67 ) ;
#167 = APPROVAL ( #45, 'UNSPECIFIED' ) ;
#168 = CONICAL_SURFACE ( 'NONE', #4, 4.750000000000000000, 0.5235987755983002589 ) ;
#169 = APPROVAL_DATE_TIME ( #95, #167 ) ;
#170 = DIRECTION ( 'NONE',  ( -3.491481338843133355E-15, 1.224646799147353454E-16, -1.000000000000000000 ) ) ;
#171 = PERSON_AND_ORGANIZATION ( #86, #67 ) ;
#172 = DIRECTION ( 'NONE',  ( -3.491481338843133355E-15, 1.224646799147353454E-16, -1.000000000000000000 ) ) ;
#173 = PERSON_AND_ORGANIZATION ( #86, #67 ) ;
#174 = DIRECTION ( 'NONE',  ( -3.491481338843133355E-15, 1.224646799147353454E-16, -1.000000000000000000 ) ) ;
#175 = PERSON_AND_ORGANIZATION ( #86, #67 ) ;
#176 = DIRECTION ( 'NONE',  ( 4.275831445896959482E-31, 1.000000000000000000, 1.224646799147353454E-16 ) ) ;
#177 = PERSON_AND_ORGANIZATION ( #86, #67 ) ;
#178 = DIRECTION ( 'NONE',  ( 0.0000000000000000000, 1.000000000000000000, 0.0000000000000000000 ) ) ;
#179 = VERTEX_POINT ( 'NONE', #181 ) ;
#180 = EDGE_LOOP ( 'NONE', ( #16 ) ) ;
#181 = CARTESIAN_POINT ( 'NONE',  ( 0.0000000000000000000, 4.249999999999997335, 0.0000000000000000000 ) ) ;
#182 = APPROVAL ( #187, 'UNSPECIFIED' ) ;
#183 = EDGE_LOOP ( 'NONE', ( #75 ) ) ;
#184 = CARTESIAN_POINT ( 'NONE',  ( 0.0000000000000000000, 0.0000000000000000000, 0.0000000000000000000 ) ) ;
#185 = ORIENTED_EDGE ( 'NONE', *, *, #61, .T. ) ;
#186 = CONICAL_SURFACE ( 'NONE', #79, 4.249999999999997335, 0.7853981633974496113 ) ;
#187 = APPROVAL_STATUS ( 'not_yet_approved' ) ;
#188 = LOCAL_TIME ( 7, 48, 43.00000000000000000, #89 ) ;
#189 = ADVANCED_FACE ( 'NONE', ( #114 ), #193, .T. ) ;
#190 = APPROVAL ( #56, 'UNSPECIFIED' ) ;
#191 = PERSON_AND_ORGANIZATION ( #86, #67 ) ;
#192 = DIRECTION ( 'NONE',  ( -3.491481338843133355E-15, 1.224646799147353454E-16, -1.000000000000000000 ) ) ;
#193 = PLANE ( 'NONE',  #101 ) ;
#194 = CYLINDRICAL_SURFACE ( 'NONE', #196, 2.999999999999994671 ) ;
#195 = CARTESIAN_POINT ( 'NONE',  ( 5.586370142149013368E-14, -1.959434878635765526E-15, 16.00000000000000000 ) ) ;
#196 = AXIS2_PLACEMENT_3D ( 'NONE', #102, #66, #115 ) ;
#197 = APPLICATION_PROTOCOL_DEFINITION ( 'international standard', 'config_control_design', 1994, #125 ) ;
#198 = FACE_OUTER_BOUND ( 'NONE', #40, .T. ) ;
#199 = PRODUCT_DEFINITION_SHAPE ( 'NONE', 'NONE',  #62 ) ;
#200 = CALENDAR_DATE ( 2021, 3, 12 ) ;
#201 = EDGE_LOOP ( 'NONE', ( #185 ) ) ;
#202 = ORIENTED_EDGE ( 'NONE', *, *, #78, .F. ) ;
#203 = CC_DESIGN_APPROVAL ( #182, ( #132 ) ) ;
#204 = EDGE_LOOP ( 'NONE', ( #111 ) ) ;
#205 = AXIS2_PLACEMENT_3D ( 'NONE', #117, #172, #212 ) ;
#206 = CC_DESIGN_DATE_AND_TIME_ASSIGNMENT ( #149, #227, ( #132 ) ) ;
#207 = MANIFOLD_SOLID_BREP ( 'Corps-Déplacer/Copier1[2]', #48 ) ;
#208 = CIRCLE ( 'NONE', #1, 4.750000000000000000 ) ;
#209 = APPROVAL_ROLE ( '' ) ;
#210 = CARTESIAN_POINT ( 'NONE',  ( 5.586370142149013368E-14, 4.749999999999998224, 16.00000000000000000 ) ) ;
#211 = APPROVAL_ROLE ( '' ) ;
#212 = DIRECTION ( 'NONE',  ( 0.0000000000000000000, 1.000000000000000000, 0.0000000000000000000 ) ) ;
#213 = CARTESIAN_POINT ( 'NONE',  ( 4.085033166446466404E-13, 2.399999999999987921, 117.0000000000000000 ) ) ;
#214 = CARTESIAN_POINT ( 'NONE',  ( 4.085033166446466404E-13, 1.799711739194210245E-32, 117.0000000000000000 ) ) ;
#215 = DIRECTION ( 'NONE',  ( -3.491481338843133355E-15, 1.224646799147353454E-16, -1.000000000000000000 ) ) ;
#216 = ADVANCED_FACE ( 'NONE', ( #107, #52 ), #186, .T. ) ;
#217 = CC_DESIGN_DATE_AND_TIME_ASSIGNMENT ( #160, #239, ( #62 ) ) ;
#218 = CARTESIAN_POINT ( 'NONE',  ( 5.586370142149013368E-14, -1.959434878635765526E-15, 16.00000000000000000 ) ) ;
#219 = DIRECTION ( 'NONE',  ( 0.0000000000000000000, 0.0000000000000000000, 1.000000000000000000 ) ) ;
#220 = EDGE_LOOP ( 'NONE', ( #202 ) ) ;
#221 = CYLINDRICAL_SURFACE ( 'NONE', #157, 4.749999999999999112 ) ;
#222 = EDGE_LOOP ( 'NONE', ( #112 ) ) ;
#223 = LOCAL_TIME ( 7, 48, 43.00000000000000000, #15 ) ;
#224 = UNCERTAINTY_MEASURE_WITH_UNIT (LENGTH_MEASURE( 1.000000000000000082E-05 ), #236, 'distance_accuracy_value', 'NONE');
#225 = CC_DESIGN_PERSON_AND_ORGANIZATION_ASSIGNMENT ( #171, #3, ( #132 ) ) ;
#226 = ADVANCED_BREP_SHAPE_REPRESENTATION ( '342382', ( #127, #207, #33 ), #103 ) ;
#227 = DATE_TIME_ROLE ( 'classification_date' ) ;
#228 = DIRECTION ( 'NONE',  ( -3.491481338843133355E-15, 1.224646799147353454E-16, -1.000000000000000000 ) ) ;
#229 = DIRECTION ( 'NONE',  ( 0.0000000000000000000, 1.000000000000000000, 0.0000000000000000000 ) ) ;
#230 = CC_DESIGN_APPROVAL ( #167, ( #113 ) ) ;
#231 = PLANE ( 'NONE',  #19 ) ;
#232 = CLOSED_SHELL ( 'NONE', ( #147, #59, #161, #241, #41 ) ) ;
#233 = EDGE_CURVE ( 'NONE', #29, #29, #140, .T. ) ;
#234 = CARTESIAN_POINT ( 'NONE',  ( 4.085033166446466404E-13, -1.432836755002403758E-14, 117.0000000000000000 ) ) ;
#235 = CC_DESIGN_PERSON_AND_ORGANIZATION_ASSIGNMENT ( #173, #5, ( #113 ) ) ;
#236 =( LENGTH_UNIT ( ) NAMED_UNIT ( * ) SI_UNIT ( .MILLI., .METRE. ) );
#237 = PRODUCT ( '342382', '342382', '', ( #35 ) ) ;
#238 = FACE_OUTER_BOUND ( 'NONE', #183, .T. ) ;
#239 = DATE_TIME_ROLE ( 'creation_date' ) ;
#240 = ORIENTED_EDGE ( 'NONE', *, *, #118, .F. ) ;
#241 = ADVANCED_FACE ( 'NONE', ( #238, #6 ), #44, .T. ) ;
#242 = ORIENTED_EDGE ( 'NONE', *, *, #148, .F. ) ;
#243 = DIRECTION ( 'NONE',  ( -3.491481338843133355E-15, 1.224646799147353454E-16, -1.000000000000000000 ) ) ;
ENDSEC;
END-ISO-10303-21;
