ISO-10303-21;
HEADER;
FILE_DESCRIPTION (( 'STEP AP203' ),
    '1' );
FILE_NAME ('342342.step',
    '2021-12-03T06:48:43',
    ( '' ),
    ( '' ),
    'SwSTEP 2.0',
    'SolidWorks 2019',
    '' );
FILE_SCHEMA (( 'CONFIG_CONTROL_DESIGN' ));
ENDSEC;

DATA;
#1 = CARTESIAN_POINT ( 'NONE',  ( 4.085033166446466404E-13, -1.432836755002403758E-14, 117.0000000000000000 ) ) ;
#2 = AXIS2_PLACEMENT_3D ( 'NONE', #99, #183, #16 ) ;
#3 = CARTESIAN_POINT ( 'NONE',  ( 1.745740669421563719E-15, 4.549999999999999822, 0.4999999999999991673 ) ) ;
#4 = AXIS2_PLACEMENT_3D ( 'NONE', #129, #213, #79 ) ;
#5 = DIRECTION ( 'NONE',  ( -3.491481338843133355E-15, 1.224646799147353454E-16, -1.000000000000000000 ) ) ;
#6 = DATE_TIME_ROLE ( 'creation_date' ) ;
#7 = CONICAL_SURFACE ( 'NONE', #4, 4.049999999999998046, 0.7853981633974513876 ) ;
#8 = APPROVAL_STATUS ( 'not_yet_approved' ) ;
#9 = DIRECTION ( 'NONE',  ( 3.491481338843133355E-15, -1.224646799147353454E-16, 1.000000000000000000 ) ) ;
#10 = MECHANICAL_CONTEXT ( 'NONE', #96, 'mechanical' ) ;
#11 = DIRECTION ( 'NONE',  ( 1.000000000000000000, 0.0000000000000000000, 0.0000000000000000000 ) ) ;
#12 =( GEOMETRIC_REPRESENTATION_CONTEXT ( 3 ) GLOBAL_UNCERTAINTY_ASSIGNED_CONTEXT ( ( #69 ) ) GLOBAL_UNIT_ASSIGNED_CONTEXT ( ( #32, #67, #192 ) ) REPRESENTATION_CONTEXT ( 'NONE', 'WORKASPACE' ) );
#13 = AXIS2_PLACEMENT_3D ( 'NONE', #68, #144, #220 ) ;
#14 = EDGE_LOOP ( 'NONE', ( #49 ) ) ;
#15 = PERSON_AND_ORGANIZATION_ROLE ( 'design_supplier' ) ;
#16 = DIRECTION ( 'NONE',  ( 4.275831445896959482E-31, 1.000000000000000000, 1.224646799147353454E-16 ) ) ;
#17 = DIRECTION ( 'NONE',  ( -3.491481338843133355E-15, 1.224646799147353454E-16, -1.000000000000000000 ) ) ;
#18 = FACE_OUTER_BOUND ( 'NONE', #167, .T. ) ;
#19 = AXIS2_PLACEMENT_3D ( 'NONE', #50, #83, #149 ) ;
#20 = EDGE_CURVE ( 'NONE', #212, #212, #163, .T. ) ;
#21 = SHAPE_DEFINITION_REPRESENTATION ( #53, #157 ) ;
#22 = EDGE_CURVE ( 'NONE', #151, #151, #60, .T. ) ;
#23 = ORIENTED_EDGE ( 'NONE', *, *, #101, .T. ) ;
#24 = COORDINATED_UNIVERSAL_TIME_OFFSET ( 1, 0, .AHEAD. ) ;
#25 = PERSON_AND_ORGANIZATION_ROLE ( 'creator' ) ;
#26 = AXIS2_PLACEMENT_3D ( 'NONE', #107, #169, #65 ) ;
#27 = DIRECTION ( 'NONE',  ( 4.275831445896959482E-31, 1.000000000000000000, 1.224646799147353454E-16 ) ) ;
#28 = DIRECTION ( 'NONE',  ( 0.0000000000000000000, 1.000000000000000000, 0.0000000000000000000 ) ) ;
#29 = PLANE ( 'NONE',  #189 ) ;
#30 = ORIENTED_EDGE ( 'NONE', *, *, #101, .F. ) ;
#31 = CC_DESIGN_APPROVAL ( #142, ( #137 ) ) ;
#32 =( LENGTH_UNIT ( ) NAMED_UNIT ( * ) SI_UNIT ( .MILLI., .METRE. ) );
#33 = ADVANCED_FACE ( 'NONE', ( #82, #109 ), #106, .T. ) ;
#34 = DIRECTION ( 'NONE',  ( 4.275831445896959482E-31, 1.000000000000000000, 1.224646799147353454E-16 ) ) ;
#35 = CC_DESIGN_PERSON_AND_ORGANIZATION_ASSIGNMENT ( #91, #25, ( #137 ) ) ;
#36 = CALENDAR_DATE ( 2021, 3, 12 ) ;
#37 = VERTEX_POINT ( 'NONE', #3 ) ;
#38 = ADVANCED_FACE ( 'NONE', ( #87 ), #204, .T. ) ;
#39 = PERSON_AND_ORGANIZATION ( #235, #74 ) ;
#40 = COORDINATED_UNIVERSAL_TIME_OFFSET ( 1, 0, .AHEAD. ) ;
#41 = EDGE_LOOP ( 'NONE', ( #95 ) ) ;
#42 = APPROVAL_DATE_TIME ( #238, #89 ) ;
#43 = PLANE ( 'NONE',  #92 ) ;
#44 = EDGE_LOOP ( 'NONE', ( #30 ) ) ;
#45 = EDGE_CURVE ( 'NONE', #230, #230, #122, .T. ) ;
#46 = DIRECTION ( 'NONE',  ( -3.491481338843133355E-15, 1.224646799147353454E-16, -1.000000000000000000 ) ) ;
#47 = EDGE_LOOP ( 'NONE', ( #216 ) ) ;
#48 = CARTESIAN_POINT ( 'NONE',  ( 4.085033166446466404E-13, -1.432836755002403758E-14, 117.0000000000000000 ) ) ;
#49 = ORIENTED_EDGE ( 'NONE', *, *, #64, .F. ) ;
#50 = CARTESIAN_POINT ( 'NONE',  ( 4.064084278413407478E-13, -1.425488874207519270E-14, 116.4000000000000057 ) ) ;
#51 = CLOSED_SHELL ( 'NONE', ( #171, #145, #33, #173, #208 ) ) ;
#52 = CARTESIAN_POINT ( 'NONE',  ( 1.745740669421561747E-15, -6.123233995736750012E-17, 0.4999999999999986122 ) ) ;
#53 = PRODUCT_DEFINITION_SHAPE ( 'NONE', 'NONE',  #111 ) ;
#54 = CYLINDRICAL_SURFACE ( 'NONE', #13, 4.549999999999999822 ) ;
#55 = FACE_BOUND ( 'NONE', #141, .T. ) ;
#56 = CARTESIAN_POINT ( 'NONE',  ( 5.586370142149013368E-14, 4.549999999999998934, 16.00000000000000000 ) ) ;
#57 = CC_DESIGN_DATE_AND_TIME_ASSIGNMENT ( #81, #94, ( #172 ) ) ;
#58 = AXIS2_PLACEMENT_3D ( 'NONE', #52, #46, #123 ) ;
#59 = DATE_AND_TIME ( #76, #202 ) ;
#60 = CIRCLE ( 'NONE', #2, 4.049999999999998046 ) ;
#61 = DIRECTION ( 'NONE',  ( -3.491481338843133355E-15, 1.224646799147353454E-16, -1.000000000000000000 ) ) ;
#62 = COORDINATED_UNIVERSAL_TIME_OFFSET ( 1, 0, .AHEAD. ) ;
#63 = APPROVAL_PERSON_ORGANIZATION ( #179, #191, #166 ) ;
#64 = EDGE_CURVE ( 'NONE', #130, #130, #72, .T. ) ;
#65 = DIRECTION ( 'NONE',  ( 4.275831445896959482E-31, 1.000000000000000000, 1.224646799147353454E-16 ) ) ;
#66 = ORIENTED_EDGE ( 'NONE', *, *, #210, .F. ) ;
#67 =( NAMED_UNIT ( * ) PLANE_ANGLE_UNIT ( ) SI_UNIT ( $, .RADIAN. ) );
#68 = CARTESIAN_POINT ( 'NONE',  ( 0.0000000000000000000, 0.0000000000000000000, 0.0000000000000000000 ) ) ;
#69 = UNCERTAINTY_MEASURE_WITH_UNIT (LENGTH_MEASURE( 1.000000000000000082E-05 ), #32, 'distance_accuracy_value', 'NONE');
#70 = EDGE_LOOP ( 'NONE', ( #23 ) ) ;
#71 = AXIS2_PLACEMENT_3D ( 'NONE', #90, #9, #75 ) ;
#72 = CIRCLE ( 'NONE', #224, 2.999999999999988010 ) ;
#73 = APPROVAL_PERSON_ORGANIZATION ( #162, #89, #211 ) ;
#74 = ORGANIZATION ( 'UNSPECIFIED', 'UNSPECIFIED', '' ) ;
#75 = DIRECTION ( 'NONE',  ( -4.275831445896959482E-31, -1.000000000000000000, -1.224646799147353454E-16 ) ) ;
#76 = CALENDAR_DATE ( 2021, 3, 12 ) ;
#77 = PERSON_AND_ORGANIZATION_ROLE ( 'design_owner' ) ;
#78 = AXIS2_PLACEMENT_3D ( 'NONE', #242, #187, #34 ) ;
#79 = DIRECTION ( 'NONE',  ( -4.275831445896959482E-31, -1.000000000000000000, -1.224646799147353454E-16 ) ) ;
#80 = ORIENTED_EDGE ( 'NONE', *, *, #22, .T. ) ;
#81 = DATE_AND_TIME ( #36, #147 ) ;
#82 = FACE_OUTER_BOUND ( 'NONE', #14, .T. ) ;
#83 = DIRECTION ( 'NONE',  ( -3.491481338843133355E-15, 1.224646799147353454E-16, -1.000000000000000000 ) ) ;
#84 = ADVANCED_FACE ( 'NONE', ( #203, #188 ), #54, .T. ) ;
#85 = CIRCLE ( 'NONE', #58, 4.549999999999999822 ) ;
#86 = EDGE_LOOP ( 'NONE', ( #201 ) ) ;
#87 = FACE_OUTER_BOUND ( 'NONE', #102, .T. ) ;
#88 = APPROVAL_PERSON_ORGANIZATION ( #116, #142, #93 ) ;
#89 = APPROVAL ( #138, 'UNSPECIFIED' ) ;
#90 = CARTESIAN_POINT ( 'NONE',  ( 5.586370142149013368E-14, 3.411953505555725237E-32, 16.00000000000000000 ) ) ;
#91 = PERSON_AND_ORGANIZATION ( #235, #74 ) ;
#92 = AXIS2_PLACEMENT_3D ( 'NONE', #120, #199, #27 ) ;
#93 = APPROVAL_ROLE ( '' ) ;
#94 = DATE_TIME_ROLE ( 'classification_date' ) ;
#95 = ORIENTED_EDGE ( 'NONE', *, *, #20, .F. ) ;
#96 = APPLICATION_CONTEXT ( 'configuration controlled 3d designs of mechanical parts and assemblies' ) ;
#97 = PERSON_AND_ORGANIZATION_ROLE ( 'classification_officer' ) ;
#98 = AXIS2_PLACEMENT_3D ( 'NONE', #48, #17, #124 ) ;
#99 = CARTESIAN_POINT ( 'NONE',  ( -1.731711735588267807E-30, 6.074027119780522764E-32, -4.959819536546778628E-16 ) ) ;
#100 = DESIGN_CONTEXT ( 'detailed design', #218, 'design' ) ;
#101 = EDGE_CURVE ( 'NONE', #135, #135, #148, .T. ) ;
#102 = EDGE_LOOP ( 'NONE', ( #80 ) ) ;
#103 = DIRECTION ( 'NONE',  ( 0.0000000000000000000, 1.000000000000000000, 0.0000000000000000000 ) ) ;
#104 = ORIENTED_EDGE ( 'NONE', *, *, #45, .F. ) ;
#105 = CC_DESIGN_APPROVAL ( #89, ( #111 ) ) ;
#106 = CYLINDRICAL_SURFACE ( 'NONE', #78, 2.999999999999994671 ) ;
#107 = CARTESIAN_POINT ( 'NONE',  ( -8.658558677941339033E-31, 3.037013559890261382E-32, -2.479909768273389314E-16 ) ) ;
#108 = CC_DESIGN_DATE_AND_TIME_ASSIGNMENT ( #196, #6, ( #111 ) ) ;
#109 = FACE_OUTER_BOUND ( 'NONE', #240, .T. ) ;
#110 = CARTESIAN_POINT ( 'NONE',  ( 5.586370142149013368E-14, -1.959434878635765526E-15, 16.00000000000000000 ) ) ;
#111 = PRODUCT_DEFINITION ( 'UNKNOWN', '', #137, #100 ) ;
#112 = AXIS2_PLACEMENT_3D ( 'NONE', #1, #128, #103 ) ;
#113 = APPROVAL_DATE_TIME ( #59, #191 ) ;
#114 = APPLICATION_PROTOCOL_DEFINITION ( 'international standard', 'config_control_design', 1994, #96 ) ;
#115 = LOCAL_TIME ( 7, 48, 43.00000000000000000, #40 ) ;
#116 = PERSON_AND_ORGANIZATION ( #235, #74 ) ;
#117 = FACE_BOUND ( 'NONE', #70, .T. ) ;
#118 = APPLICATION_PROTOCOL_DEFINITION ( 'international standard', 'config_control_design', 1994, #218 ) ;
#119 = CALENDAR_DATE ( 2021, 3, 12 ) ;
#120 = CARTESIAN_POINT ( 'NONE',  ( 4.085033166446466404E-13, 1.799711739194210245E-32, 117.0000000000000000 ) ) ;
#121 = CARTESIAN_POINT ( 'NONE',  ( 5.586370142149013368E-14, -1.959434878635765526E-15, 16.00000000000000000 ) ) ;
#122 = CIRCLE ( 'NONE', #19, 3.000000000000001776 ) ;
#123 = DIRECTION ( 'NONE',  ( 4.232813064587331834E-31, 1.000000000000000000, 1.191430958775279679E-16 ) ) ;
#124 = DIRECTION ( 'NONE',  ( 0.0000000000000000000, 1.000000000000000000, 0.0000000000000000000 ) ) ;
#125 = CC_DESIGN_SECURITY_CLASSIFICATION ( #172, ( #137 ) ) ;
#126 = DIRECTION ( 'NONE',  ( -3.491481338843133355E-15, 1.224646799147353454E-16, -1.000000000000000000 ) ) ;
#127 = CARTESIAN_POINT ( 'NONE',  ( 5.586370142149013368E-14, 3.411953505555725237E-32, 16.00000000000000000 ) ) ;
#128 = DIRECTION ( 'NONE',  ( -3.491481338843133355E-15, 1.224646799147353454E-16, -1.000000000000000000 ) ) ;
#129 = CARTESIAN_POINT ( 'NONE',  ( -1.731711735588267807E-30, 6.074027119780522764E-32, -4.959819536546778628E-16 ) ) ;
#130 = VERTEX_POINT ( 'NONE', #131 ) ;
#131 = CARTESIAN_POINT ( 'NONE',  ( 6.523720718395029612E-14, 2.999999999999985789, 18.68467875173177362 ) ) ;
#132 = CONICAL_SURFACE ( 'NONE', #112, 2.400000000000002576, 0.7853981633974450594 ) ;
#133 = AXIS2_PLACEMENT_3D ( 'NONE', #121, #200, #28 ) ;
#134 = CALENDAR_DATE ( 2021, 3, 12 ) ;
#135 = VERTEX_POINT ( 'NONE', #156 ) ;
#136 = MANIFOLD_SOLID_BREP ( 'Corps-Déplacer/Copier1[2]', #232 ) ;
#137 = PRODUCT_DEFINITION_FORMATION_WITH_SPECIFIED_SOURCE ( 'ANY', '', #223, .NOT_KNOWN. ) ;
#138 = APPROVAL_STATUS ( 'not_yet_approved' ) ;
#139 = MANIFOLD_SOLID_BREP ( 'Corps-Déplacer/Copier1[1]', #51 ) ;
#140 = CARTESIAN_POINT ( 'NONE',  ( 0.0000000000000000000, 0.0000000000000000000, 0.0000000000000000000 ) ) ;
#141 = EDGE_LOOP ( 'NONE', ( #185 ) ) ;
#142 = APPROVAL ( #160, 'UNSPECIFIED' ) ;
#143 = DIRECTION ( 'NONE',  ( 3.491481338843133355E-15, -1.224646799147353454E-16, 1.000000000000000000 ) ) ;
#144 = DIRECTION ( 'NONE',  ( -3.491481338843133355E-15, 1.224646799147353454E-16, -1.000000000000000000 ) ) ;
#145 = ADVANCED_FACE ( 'NONE', ( #55, #170 ), #231, .T. ) ;
#146 = EDGE_LOOP ( 'NONE', ( #161 ) ) ;
#147 = LOCAL_TIME ( 7, 48, 43.00000000000000000, #233 ) ;
#148 = CIRCLE ( 'NONE', #98, 2.400000000000002576 ) ;
#149 = DIRECTION ( 'NONE',  ( 0.0000000000000000000, 1.000000000000000000, 0.0000000000000000000 ) ) ;
#150 = ADVANCED_FACE ( 'NONE', ( #154, #209 ), #7, .T. ) ;
#151 = VERTEX_POINT ( 'NONE', #227 ) ;
#152 = DIRECTION ( 'NONE',  ( 0.0000000000000000000, 1.000000000000000000, 0.0000000000000000000 ) ) ;
#153 = PRODUCT_RELATED_PRODUCT_CATEGORY ( 'detail', '', ( #223 ) ) ;
#154 = FACE_OUTER_BOUND ( 'NONE', #86, .T. ) ;
#155 = CIRCLE ( 'NONE', #241, 4.549999999999999822 ) ;
#156 = CARTESIAN_POINT ( 'NONE',  ( 4.085033166446466404E-13, 2.399999999999987921, 117.0000000000000000 ) ) ;
#157 = ADVANCED_BREP_SHAPE_REPRESENTATION ( '342342', ( #139, #136, #177 ), #12 ) ;
#158 = SECURITY_CLASSIFICATION_LEVEL ( 'unclassified' ) ;
#159 = FACE_OUTER_BOUND ( 'NONE', #181, .T. ) ;
#160 = APPROVAL_STATUS ( 'not_yet_approved' ) ;
#161 = ORIENTED_EDGE ( 'NONE', *, *, #22, .F. ) ;
#162 = PERSON_AND_ORGANIZATION ( #235, #74 ) ;
#163 = CIRCLE ( 'NONE', #133, 4.549999999999999822 ) ;
#164 = FACE_OUTER_BOUND ( 'NONE', #222, .T. ) ;
#165 = ORIENTED_EDGE ( 'NONE', *, *, #20, .T. ) ;
#166 = APPROVAL_ROLE ( '' ) ;
#167 = EDGE_LOOP ( 'NONE', ( #66 ) ) ;
#168 = CC_DESIGN_PERSON_AND_ORGANIZATION_ASSIGNMENT ( #217, #77, ( #223 ) ) ;
#169 = DIRECTION ( 'NONE',  ( -3.491481338843133355E-15, 1.224646799147353454E-16, -1.000000000000000000 ) ) ;
#170 = FACE_OUTER_BOUND ( 'NONE', #41, .T. ) ;
#171 = ADVANCED_FACE ( 'NONE', ( #164 ), #239, .F. ) ;
#172 = SECURITY_CLASSIFICATION ( '', '', #158 ) ;
#173 = ADVANCED_FACE ( 'NONE', ( #159, #117 ), #132, .T. ) ;
#174 = CARTESIAN_POINT ( 'NONE',  ( 5.586370142149013368E-14, -1.959434878635765526E-15, 16.00000000000000000 ) ) ;
#175 = CC_DESIGN_PERSON_AND_ORGANIZATION_ASSIGNMENT ( #215, #193, ( #111 ) ) ;
#176 = PERSON_AND_ORGANIZATION ( #235, #74 ) ;
#177 = AXIS2_PLACEMENT_3D ( 'NONE', #140, #182, #11 ) ;
#178 = ADVANCED_FACE ( 'NONE', ( #18 ), #29, .T. ) ;
#179 = PERSON_AND_ORGANIZATION ( #235, #74 ) ;
#180 = APPROVAL_DATE_TIME ( #214, #142 ) ;
#181 = EDGE_LOOP ( 'NONE', ( #104 ) ) ;
#182 = DIRECTION ( 'NONE',  ( 0.0000000000000000000, 0.0000000000000000000, 1.000000000000000000 ) ) ;
#183 = DIRECTION ( 'NONE',  ( -3.491481338843133355E-15, 1.224646799147353454E-16, -1.000000000000000000 ) ) ;
#184 = LOCAL_TIME ( 7, 48, 43.00000000000000000, #194 ) ;
#185 = ORIENTED_EDGE ( 'NONE', *, *, #64, .T. ) ;
#186 = EDGE_CURVE ( 'NONE', #37, #37, #85, .T. ) ;
#187 = DIRECTION ( 'NONE',  ( -3.491481338843133355E-15, 1.224646799147353454E-16, -1.000000000000000000 ) ) ;
#188 = FACE_OUTER_BOUND ( 'NONE', #195, .T. ) ;
#189 = AXIS2_PLACEMENT_3D ( 'NONE', #127, #143, #225 ) ;
#190 = CARTESIAN_POINT ( 'NONE',  ( 5.586370142149013368E-14, 4.549999999999998934, 16.00000000000000000 ) ) ;
#191 = APPROVAL ( #8, 'UNSPECIFIED' ) ;
#192 =( NAMED_UNIT ( * ) SI_UNIT ( $, .STERADIAN. ) SOLID_ANGLE_UNIT ( ) );
#193 = PERSON_AND_ORGANIZATION_ROLE ( 'creator' ) ;
#194 = COORDINATED_UNIVERSAL_TIME_OFFSET ( 1, 0, .AHEAD. ) ;
#195 = EDGE_LOOP ( 'NONE', ( #197 ) ) ;
#196 = DATE_AND_TIME ( #119, #115 ) ;
#197 = ORIENTED_EDGE ( 'NONE', *, *, #186, .F. ) ;
#198 = CALENDAR_DATE ( 2021, 3, 12 ) ;
#199 = DIRECTION ( 'NONE',  ( -3.491481338843133355E-15, 1.224646799147353454E-16, -1.000000000000000000 ) ) ;
#200 = DIRECTION ( 'NONE',  ( -3.491481338843133355E-15, 1.224646799147353454E-16, -1.000000000000000000 ) ) ;
#201 = ORIENTED_EDGE ( 'NONE', *, *, #186, .T. ) ;
#202 = LOCAL_TIME ( 7, 48, 43.00000000000000000, #62 ) ;
#203 = FACE_OUTER_BOUND ( 'NONE', #47, .T. ) ;
#204 = PLANE ( 'NONE',  #26 ) ;
#205 = CARTESIAN_POINT ( 'NONE',  ( 6.523720718395029612E-14, -2.288213202640488610E-15, 18.68467875173177362 ) ) ;
#206 = AXIS2_PLACEMENT_3D ( 'NONE', #110, #5, #152 ) ;
#207 = CARTESIAN_POINT ( 'NONE',  ( 4.064084278413407478E-13, 2.999999999999987566, 116.4000000000000057 ) ) ;
#208 = ADVANCED_FACE ( 'NONE', ( #219 ), #43, .F. ) ;
#209 = FACE_BOUND ( 'NONE', #146, .T. ) ;
#210 = EDGE_CURVE ( 'NONE', #229, #229, #155, .T. ) ;
#211 = APPROVAL_ROLE ( '' ) ;
#212 = VERTEX_POINT ( 'NONE', #56 ) ;
#213 = DIRECTION ( 'NONE',  ( 3.491481338843133355E-15, -1.224646799147353454E-16, 1.000000000000000000 ) ) ;
#214 = DATE_AND_TIME ( #198, #184 ) ;
#215 = PERSON_AND_ORGANIZATION ( #235, #74 ) ;
#216 = ORIENTED_EDGE ( 'NONE', *, *, #210, .T. ) ;
#217 = PERSON_AND_ORGANIZATION ( #235, #74 ) ;
#218 = APPLICATION_CONTEXT ( 'configuration controlled 3d designs of mechanical parts and assemblies' ) ;
#219 = FACE_OUTER_BOUND ( 'NONE', #44, .T. ) ;
#220 = DIRECTION ( 'NONE',  ( 4.275831445896959482E-31, 1.000000000000000000, 1.224646799147353454E-16 ) ) ;
#221 = ORIENTED_EDGE ( 'NONE', *, *, #45, .T. ) ;
#222 = EDGE_LOOP ( 'NONE', ( #165 ) ) ;
#223 = PRODUCT ( '342342', '342342', '', ( #10 ) ) ;
#224 = AXIS2_PLACEMENT_3D ( 'NONE', #205, #126, #243 ) ;
#225 = DIRECTION ( 'NONE',  ( -4.275831445896959482E-31, -1.000000000000000000, -1.224646799147353454E-16 ) ) ;
#226 = LOCAL_TIME ( 7, 48, 43.00000000000000000, #24 ) ;
#227 = CARTESIAN_POINT ( 'NONE',  ( 0.0000000000000000000, 4.049999999999998046, 0.0000000000000000000 ) ) ;
#228 = DIRECTION ( 'NONE',  ( 0.0000000000000000000, 1.000000000000000000, 0.0000000000000000000 ) ) ;
#229 = VERTEX_POINT ( 'NONE', #190 ) ;
#230 = VERTEX_POINT ( 'NONE', #207 ) ;
#231 = CONICAL_SURFACE ( 'NONE', #206, 4.549999999999999822, 0.5235987755983001479 ) ;
#232 = CLOSED_SHELL ( 'NONE', ( #84, #178, #38, #150 ) ) ;
#233 = COORDINATED_UNIVERSAL_TIME_OFFSET ( 1, 0, .AHEAD. ) ;
#234 = CC_DESIGN_PERSON_AND_ORGANIZATION_ASSIGNMENT ( #176, #15, ( #137 ) ) ;
#235 = PERSON ( 'UNSPECIFIED', 'UNSPECIFIED', 'UNSPECIFIED', ('UNSPECIFIED'), ('UNSPECIFIED'), ('UNSPECIFIED') ) ;
#236 = CC_DESIGN_APPROVAL ( #191, ( #172 ) ) ;
#237 = CC_DESIGN_PERSON_AND_ORGANIZATION_ASSIGNMENT ( #39, #97, ( #172 ) ) ;
#238 = DATE_AND_TIME ( #134, #226 ) ;
#239 = PLANE ( 'NONE',  #71 ) ;
#240 = EDGE_LOOP ( 'NONE', ( #221 ) ) ;
#241 = AXIS2_PLACEMENT_3D ( 'NONE', #174, #61, #228 ) ;
#242 = CARTESIAN_POINT ( 'NONE',  ( 0.0000000000000000000, 0.0000000000000000000, 0.0000000000000000000 ) ) ;
#243 = DIRECTION ( 'NONE',  ( 0.0000000000000000000, 1.000000000000000000, 0.0000000000000000000 ) ) ;
ENDSEC;
END-ISO-10303-21;
