ISO-10303-21;
HEADER;
FILE_DESCRIPTION (( 'STEP AP203' ),
    '1' );
FILE_NAME ('342332.step',
    '2021-12-03T06:48:41',
    ( '' ),
    ( '' ),
    'SwSTEP 2.0',
    'SolidWorks 2019',
    '' );
FILE_SCHEMA (( 'CONFIG_CONTROL_DESIGN' ));
ENDSEC;

DATA;
#1 = AXIS2_PLACEMENT_3D ( 'NONE', #187, #229, #9 ) ;
#2 = PERSON_AND_ORGANIZATION_ROLE ( 'design_owner' ) ;
#3 = FACE_OUTER_BOUND ( 'NONE', #226, .T. ) ;
#4 =( NAMED_UNIT ( * ) PLANE_ANGLE_UNIT ( ) SI_UNIT ( $, .RADIAN. ) );
#5 = DIRECTION ( 'NONE',  ( 1.000000000000000000, 0.0000000000000000000, 0.0000000000000000000 ) ) ;
#6 = AXIS2_PLACEMENT_3D ( 'NONE', #52, #141, #102 ) ;
#7 = APPLICATION_PROTOCOL_DEFINITION ( 'international standard', 'config_control_design', 1994, #198 ) ;
#8 = ORIENTED_EDGE ( 'NONE', *, *, #91, .F. ) ;
#9 = DIRECTION ( 'NONE',  ( 4.275831445896959482E-31, 1.000000000000000000, 1.224646799147353454E-16 ) ) ;
#10 = CARTESIAN_POINT ( 'NONE',  ( 1.745740669421566678E-15, 4.499999999999999112, 0.5000000000000000000 ) ) ;
#11 = CONICAL_SURFACE ( 'NONE', #6, 3.999999999999997335, 0.7853981633974496113 ) ;
#12 = DIRECTION ( 'NONE',  ( -3.491481338843133355E-15, 1.224646799147353454E-16, -1.000000000000000000 ) ) ;
#13 = EDGE_LOOP ( 'NONE', ( #205 ) ) ;
#14 = CLOSED_SHELL ( 'NONE', ( #67, #194, #140, #105 ) ) ;
#15 = AXIS2_PLACEMENT_3D ( 'NONE', #130, #126, #5 ) ;
#16 = ORIENTED_EDGE ( 'NONE', *, *, #26, .F. ) ;
#17 = DIRECTION ( 'NONE',  ( -3.491481338843133355E-15, 1.224646799147353454E-16, -1.000000000000000000 ) ) ;
#18 = SECURITY_CLASSIFICATION ( '', '', #106 ) ;
#19 = CALENDAR_DATE ( 2021, 3, 12 ) ;
#20 = ORIENTED_EDGE ( 'NONE', *, *, #116, .F. ) ;
#21 = APPROVAL_ROLE ( '' ) ;
#22 = AXIS2_PLACEMENT_3D ( 'NONE', #55, #200, #125 ) ;
#23 = FACE_BOUND ( 'NONE', #151, .T. ) ;
#24 = APPROVAL_DATE_TIME ( #94, #27 ) ;
#25 = LOCAL_TIME ( 7, 48, 41.00000000000000000, #60 ) ;
#26 = EDGE_CURVE ( 'NONE', #95, #95, #123, .T. ) ;
#27 = APPROVAL ( #233, 'UNSPECIFIED' ) ;
#28 = DIRECTION ( 'NONE',  ( 0.0000000000000000000, 1.000000000000000000, 0.0000000000000000000 ) ) ;
#29 = FACE_OUTER_BOUND ( 'NONE', #242, .T. ) ;
#30 = AXIS2_PLACEMENT_3D ( 'NONE', #232, #40, #190 ) ;
#31 = CARTESIAN_POINT ( 'NONE',  ( 3.421138828918010427E-46, 3.999999999999997335, 0.0000000000000000000 ) ) ;
#32 = ADVANCED_FACE ( 'NONE', ( #166, #73 ), #238, .T. ) ;
#33 = AXIS2_PLACEMENT_3D ( 'NONE', #80, #134, #81 ) ;
#34 = AXIS2_PLACEMENT_3D ( 'NONE', #85, #122, #183 ) ;
#35 = DIRECTION ( 'NONE',  ( 0.0000000000000000000, 1.000000000000000000, 0.0000000000000000000 ) ) ;
#36 = EDGE_CURVE ( 'NONE', #156, #156, #239, .T. ) ;
#37 = CALENDAR_DATE ( 2021, 3, 12 ) ;
#38 = PERSON_AND_ORGANIZATION ( #131, #182 ) ;
#39 = APPLICATION_PROTOCOL_DEFINITION ( 'international standard', 'config_control_design', 1994, #103 ) ;
#40 = DIRECTION ( 'NONE',  ( 3.491481338843133355E-15, -1.224646799147353454E-16, 1.000000000000000000 ) ) ;
#41 = APPROVAL_ROLE ( '' ) ;
#42 = CARTESIAN_POINT ( 'NONE',  ( 5.586370142149013368E-14, -1.959434878635765526E-15, 16.00000000000000000 ) ) ;
#43 = DIRECTION ( 'NONE',  ( -4.275831445896959482E-31, -1.000000000000000000, -1.224646799147353454E-16 ) ) ;
#44 = APPROVAL_STATUS ( 'not_yet_approved' ) ;
#45 =( LENGTH_UNIT ( ) NAMED_UNIT ( * ) SI_UNIT ( .MILLI., .METRE. ) );
#46 = ORIENTED_EDGE ( 'NONE', *, *, #36, .F. ) ;
#47 = EDGE_LOOP ( 'NONE', ( #241 ) ) ;
#48 = EDGE_LOOP ( 'NONE', ( #215 ) ) ;
#49 = VERTEX_POINT ( 'NONE', #120 ) ;
#50 = LOCAL_TIME ( 7, 48, 41.00000000000000000, #108 ) ;
#51 = DESIGN_CONTEXT ( 'detailed design', #103, 'design' ) ;
#52 = CARTESIAN_POINT ( 'NONE',  ( -1.710332578358782392E-30, 5.999039130647428242E-32, -4.898587196589410857E-16 ) ) ;
#53 = CC_DESIGN_PERSON_AND_ORGANIZATION_ASSIGNMENT ( #74, #147, ( #142 ) ) ;
#54 = AXIS2_PLACEMENT_3D ( 'NONE', #42, #172, #152 ) ;
#55 = CARTESIAN_POINT ( 'NONE',  ( 4.085033166446466404E-13, -1.432836755002403758E-14, 117.0000000000000000 ) ) ;
#56 = PLANE ( 'NONE',  #34 ) ;
#57 = PERSON_AND_ORGANIZATION ( #131, #182 ) ;
#58 = PRODUCT_DEFINITION_FORMATION_WITH_SPECIFIED_SOURCE ( 'ANY', '', #177, .NOT_KNOWN. ) ;
#59 = VERTEX_POINT ( 'NONE', #216 ) ;
#60 = COORDINATED_UNIVERSAL_TIME_OFFSET ( 1, 0, .AHEAD. ) ;
#61 = ORIENTED_EDGE ( 'NONE', *, *, #185, .F. ) ;
#62 = CC_DESIGN_PERSON_AND_ORGANIZATION_ASSIGNMENT ( #171, #186, ( #18 ) ) ;
#63 = DATE_AND_TIME ( #37, #25 ) ;
#64 = AXIS2_PLACEMENT_3D ( 'NONE', #86, #17, #87 ) ;
#65 = CARTESIAN_POINT ( 'NONE',  ( 4.085033166446466404E-13, 2.399999999999987921, 117.0000000000000000 ) ) ;
#66 = EDGE_LOOP ( 'NONE', ( #8 ) ) ;
#67 = ADVANCED_FACE ( 'NONE', ( #163, #101 ), #179, .T. ) ;
#68 = DIRECTION ( 'NONE',  ( 4.275831445896959482E-31, 1.000000000000000000, 1.224646799147353207E-16 ) ) ;
#69 = CARTESIAN_POINT ( 'NONE',  ( 5.586370142149013368E-14, 3.374459510989177975E-32, 16.00000000000000000 ) ) ;
#70 = AXIS2_PLACEMENT_3D ( 'NONE', #144, #124, #225 ) ;
#71 = ADVANCED_FACE ( 'NONE', ( #29 ), #176, .F. ) ;
#72 = CIRCLE ( 'NONE', #70, 4.500000000000000000 ) ;
#73 = FACE_BOUND ( 'NONE', #84, .T. ) ;
#74 = PERSON_AND_ORGANIZATION ( #131, #182 ) ;
#75 = COORDINATED_UNIVERSAL_TIME_OFFSET ( 1, 0, .AHEAD. ) ;
#76 = EDGE_LOOP ( 'NONE', ( #20 ) ) ;
#77 = FACE_OUTER_BOUND ( 'NONE', #79, .T. ) ;
#78 = PERSON_AND_ORGANIZATION ( #131, #182 ) ;
#79 = EDGE_LOOP ( 'NONE', ( #231 ) ) ;
#80 = CARTESIAN_POINT ( 'NONE',  ( 4.064084278413407478E-13, -1.425488874207519270E-14, 116.4000000000000057 ) ) ;
#81 = DIRECTION ( 'NONE',  ( 0.0000000000000000000, 1.000000000000000000, 0.0000000000000000000 ) ) ;
#82 = LOCAL_TIME ( 7, 48, 41.00000000000000000, #213 ) ;
#83 = CARTESIAN_POINT ( 'NONE',  ( 0.0000000000000000000, 0.0000000000000000000, 0.0000000000000000000 ) ) ;
#84 = EDGE_LOOP ( 'NONE', ( #223 ) ) ;
#85 = CARTESIAN_POINT ( 'NONE',  ( 4.085033166446466404E-13, 1.799711739194210245E-32, 117.0000000000000000 ) ) ;
#86 = CARTESIAN_POINT ( 'NONE',  ( 1.745740669421564903E-15, -6.123233995736761105E-17, 0.4999999999999994449 ) ) ;
#87 = DIRECTION ( 'NONE',  ( 4.279844320860524896E-31, 1.000000000000000000, 1.204669080539449590E-16 ) ) ;
#88 = ADVANCED_BREP_SHAPE_REPRESENTATION ( '342332', ( #133, #219, #15 ), #121 ) ;
#89 = PERSON_AND_ORGANIZATION ( #131, #182 ) ;
#90 = DATE_AND_TIME ( #19, #158 ) ;
#91 = EDGE_CURVE ( 'NONE', #173, #173, #168, .T. ) ;
#92 = EDGE_CURVE ( 'NONE', #212, #212, #207, .T. ) ;
#93 = CLOSED_SHELL ( 'NONE', ( #71, #150, #175, #32, #109 ) ) ;
#94 = DATE_AND_TIME ( #188, #50 ) ;
#95 = VERTEX_POINT ( 'NONE', #10 ) ;
#96 = SHAPE_DEFINITION_REPRESENTATION ( #138, #88 ) ;
#97 = DIRECTION ( 'NONE',  ( -3.491481338843133355E-15, 1.224646799147353454E-16, -1.000000000000000000 ) ) ;
#98 = APPROVAL ( #127, 'UNSPECIFIED' ) ;
#99 = AXIS2_PLACEMENT_3D ( 'NONE', #107, #12, #146 ) ;
#100 = CC_DESIGN_APPROVAL ( #98, ( #142 ) ) ;
#101 = FACE_OUTER_BOUND ( 'NONE', #148, .T. ) ;
#102 = DIRECTION ( 'NONE',  ( -4.275831445896960358E-31, -1.000000000000000000, -1.224646799147353454E-16 ) ) ;
#103 = APPLICATION_CONTEXT ( 'configuration controlled 3d designs of mechanical parts and assemblies' ) ;
#104 = CC_DESIGN_DATE_AND_TIME_ASSIGNMENT ( #90, #191, ( #18 ) ) ;
#105 = ADVANCED_FACE ( 'NONE', ( #220, #218 ), #11, .T. ) ;
#106 = SECURITY_CLASSIFICATION_LEVEL ( 'unclassified' ) ;
#107 = CARTESIAN_POINT ( 'NONE',  ( -1.710332578358782392E-30, 5.999039130647428242E-32, -4.898587196589410857E-16 ) ) ;
#108 = COORDINATED_UNIVERSAL_TIME_OFFSET ( 1, 0, .AHEAD. ) ;
#109 = ADVANCED_FACE ( 'NONE', ( #178 ), #56, .F. ) ;
#110 = PERSON_AND_ORGANIZATION ( #131, #182 ) ;
#111 = AXIS2_PLACEMENT_3D ( 'NONE', #69, #139, #43 ) ;
#112 = APPROVAL_PERSON_ORGANIZATION ( #78, #27, #21 ) ;
#113 = FACE_OUTER_BOUND ( 'NONE', #76, .T. ) ;
#114 = CALENDAR_DATE ( 2021, 3, 12 ) ;
#115 = CARTESIAN_POINT ( 'NONE',  ( 4.085033166446466404E-13, -1.432836755002403758E-14, 117.0000000000000000 ) ) ;
#116 = EDGE_CURVE ( 'NONE', #59, #59, #72, .T. ) ;
#117 = ORIENTED_EDGE ( 'NONE', *, *, #116, .T. ) ;
#118 = CIRCLE ( 'NONE', #214, 4.500000000000000000 ) ;
#119 = EDGE_LOOP ( 'NONE', ( #61 ) ) ;
#120 = CARTESIAN_POINT ( 'NONE',  ( 5.586370142149013368E-14, 4.499999999999998224, 16.00000000000000000 ) ) ;
#121 =( GEOMETRIC_REPRESENTATION_CONTEXT ( 3 ) GLOBAL_UNCERTAINTY_ASSIGNED_CONTEXT ( ( #164 ) ) GLOBAL_UNIT_ASSIGNED_CONTEXT ( ( #45, #4, #160 ) ) REPRESENTATION_CONTEXT ( 'NONE', 'WORKASPACE' ) );
#122 = DIRECTION ( 'NONE',  ( -3.491481338843133355E-15, 1.224646799147353454E-16, -1.000000000000000000 ) ) ;
#123 = CIRCLE ( 'NONE', #64, 4.499999999999999112 ) ;
#124 = DIRECTION ( 'NONE',  ( -3.491481338843133355E-15, 1.224646799147353454E-16, -1.000000000000000000 ) ) ;
#125 = DIRECTION ( 'NONE',  ( 0.0000000000000000000, 1.000000000000000000, 0.0000000000000000000 ) ) ;
#126 = DIRECTION ( 'NONE',  ( 0.0000000000000000000, 0.0000000000000000000, 1.000000000000000000 ) ) ;
#127 = APPROVAL_STATUS ( 'not_yet_approved' ) ;
#128 = APPROVAL_ROLE ( '' ) ;
#129 = ORIENTED_EDGE ( 'NONE', *, *, #36, .T. ) ;
#130 = CARTESIAN_POINT ( 'NONE',  ( 0.0000000000000000000, 0.0000000000000000000, 0.0000000000000000000 ) ) ;
#131 = PERSON ( 'UNSPECIFIED', 'UNSPECIFIED', 'UNSPECIFIED', ('UNSPECIFIED'), ('UNSPECIFIED'), ('UNSPECIFIED') ) ;
#132 = PERSON_AND_ORGANIZATION ( #131, #182 ) ;
#133 = MANIFOLD_SOLID_BREP ( 'Corps-Déplacer/Copier1[1]', #93 ) ;
#134 = DIRECTION ( 'NONE',  ( -3.491481338843133355E-15, 1.224646799147353454E-16, -1.000000000000000000 ) ) ;
#135 = EDGE_LOOP ( 'NONE', ( #193 ) ) ;
#136 = DIRECTION ( 'NONE',  ( -3.491481338843133355E-15, 1.224646799147353454E-16, -1.000000000000000000 ) ) ;
#137 = CC_DESIGN_PERSON_AND_ORGANIZATION_ASSIGNMENT ( #89, #2, ( #177 ) ) ;
#138 = PRODUCT_DEFINITION_SHAPE ( 'NONE', 'NONE',  #142 ) ;
#139 = DIRECTION ( 'NONE',  ( 3.491481338843133355E-15, -1.224646799147353454E-16, 1.000000000000000000 ) ) ;
#140 = ADVANCED_FACE ( 'NONE', ( #3 ), #211, .T. ) ;
#141 = DIRECTION ( 'NONE',  ( 3.491481338843133355E-15, -1.224646799147353454E-16, 1.000000000000000000 ) ) ;
#142 = PRODUCT_DEFINITION ( 'UNKNOWN', '', #58, #51 ) ;
#143 = EDGE_LOOP ( 'NONE', ( #46 ) ) ;
#144 = CARTESIAN_POINT ( 'NONE',  ( 5.586370142149013368E-14, -1.959434878635765526E-15, 16.00000000000000000 ) ) ;
#145 = CC_DESIGN_APPROVAL ( #237, ( #58 ) ) ;
#146 = DIRECTION ( 'NONE',  ( 4.275831445896959482E-31, 1.000000000000000000, 1.224646799147353454E-16 ) ) ;
#147 = PERSON_AND_ORGANIZATION_ROLE ( 'creator' ) ;
#148 = EDGE_LOOP ( 'NONE', ( #16 ) ) ;
#149 = DATE_AND_TIME ( #114, #82 ) ;
#150 = ADVANCED_FACE ( 'NONE', ( #23, #113 ), #162, .T. ) ;
#151 = EDGE_LOOP ( 'NONE', ( #129 ) ) ;
#152 = DIRECTION ( 'NONE',  ( 0.0000000000000000000, 1.000000000000000000, 0.0000000000000000000 ) ) ;
#153 = PLANE ( 'NONE',  #30 ) ;
#154 = MECHANICAL_CONTEXT ( 'NONE', #198, 'mechanical' ) ;
#155 = CC_DESIGN_PERSON_AND_ORGANIZATION_ASSIGNMENT ( #57, #174, ( #58 ) ) ;
#156 = VERTEX_POINT ( 'NONE', #234 ) ;
#157 = PERSON_AND_ORGANIZATION_ROLE ( 'design_supplier' ) ;
#158 = LOCAL_TIME ( 7, 48, 41.00000000000000000, #75 ) ;
#159 = ORIENTED_EDGE ( 'NONE', *, *, #185, .T. ) ;
#160 =( NAMED_UNIT ( * ) SI_UNIT ( $, .STERADIAN. ) SOLID_ANGLE_UNIT ( ) );
#161 = AXIS2_PLACEMENT_3D ( 'NONE', #199, #167, #221 ) ;
#162 = CONICAL_SURFACE ( 'NONE', #54, 4.500000000000000000, 0.5235987755983001479 ) ;
#163 = FACE_OUTER_BOUND ( 'NONE', #48, .T. ) ;
#164 = UNCERTAINTY_MEASURE_WITH_UNIT (LENGTH_MEASURE( 1.000000000000000082E-05 ), #45, 'distance_accuracy_value', 'NONE');
#165 = CC_DESIGN_APPROVAL ( #27, ( #18 ) ) ;
#166 = FACE_OUTER_BOUND ( 'NONE', #13, .T. ) ;
#167 = DIRECTION ( 'NONE',  ( -3.491481338843133355E-15, 1.224646799147353454E-16, -1.000000000000000000 ) ) ;
#168 = CIRCLE ( 'NONE', #197, 2.400000000000002576 ) ;
#169 = DATE_TIME_ROLE ( 'creation_date' ) ;
#170 = APPROVAL_DATE_TIME ( #149, #98 ) ;
#171 = PERSON_AND_ORGANIZATION ( #131, #182 ) ;
#172 = DIRECTION ( 'NONE',  ( -3.491481338843133355E-15, 1.224646799147353454E-16, -1.000000000000000000 ) ) ;
#173 = VERTEX_POINT ( 'NONE', #65 ) ;
#174 = PERSON_AND_ORGANIZATION_ROLE ( 'creator' ) ;
#175 = ADVANCED_FACE ( 'NONE', ( #206, #180 ), #192, .T. ) ;
#176 = PLANE ( 'NONE',  #111 ) ;
#177 = PRODUCT ( '342332', '342332', '', ( #154 ) ) ;
#178 = FACE_OUTER_BOUND ( 'NONE', #66, .T. ) ;
#179 = CYLINDRICAL_SURFACE ( 'NONE', #208, 4.499999999999999112 ) ;
#180 = FACE_OUTER_BOUND ( 'NONE', #47, .T. ) ;
#181 = EDGE_CURVE ( 'NONE', #49, #49, #118, .T. ) ;
#182 = ORGANIZATION ( 'UNSPECIFIED', 'UNSPECIFIED', '' ) ;
#183 = DIRECTION ( 'NONE',  ( 4.275831445896959482E-31, 1.000000000000000000, 1.224646799147353454E-16 ) ) ;
#184 = CC_DESIGN_SECURITY_CLASSIFICATION ( #18, ( #58 ) ) ;
#185 = EDGE_CURVE ( 'NONE', #196, #196, #202, .T. ) ;
#186 = PERSON_AND_ORGANIZATION_ROLE ( 'classification_officer' ) ;
#187 = CARTESIAN_POINT ( 'NONE',  ( -8.551662891793911958E-31, 2.999519565323714121E-32, -2.449293598294705428E-16 ) ) ;
#188 = CALENDAR_DATE ( 2021, 3, 12 ) ;
#189 = CC_DESIGN_PERSON_AND_ORGANIZATION_ASSIGNMENT ( #38, #157, ( #58 ) ) ;
#190 = DIRECTION ( 'NONE',  ( -4.275831445896959482E-31, -1.000000000000000000, -1.224646799147353454E-16 ) ) ;
#191 = DATE_TIME_ROLE ( 'classification_date' ) ;
#192 = CYLINDRICAL_SURFACE ( 'NONE', #224, 2.999999999999994671 ) ;
#193 = ORIENTED_EDGE ( 'NONE', *, *, #26, .T. ) ;
#194 = ADVANCED_FACE ( 'NONE', ( #77 ), #153, .T. ) ;
#195 = LOCAL_TIME ( 7, 48, 41.00000000000000000, #203 ) ;
#196 = VERTEX_POINT ( 'NONE', #31 ) ;
#197 = AXIS2_PLACEMENT_3D ( 'NONE', #115, #97, #28 ) ;
#198 = APPLICATION_CONTEXT ( 'configuration controlled 3d designs of mechanical parts and assemblies' ) ;
#199 = CARTESIAN_POINT ( 'NONE',  ( 6.493483603032254569E-14, -2.277607450253238956E-15, 18.59807621135333022 ) ) ;
#200 = DIRECTION ( 'NONE',  ( -3.491481338843133355E-15, 1.224646799147353454E-16, -1.000000000000000000 ) ) ;
#201 = DIRECTION ( 'NONE',  ( -3.491481338843133355E-15, 1.224646799147353454E-16, -1.000000000000000000 ) ) ;
#202 = CIRCLE ( 'NONE', #99, 3.999999999999997335 ) ;
#203 = COORDINATED_UNIVERSAL_TIME_OFFSET ( 1, 0, .AHEAD. ) ;
#204 = PRODUCT_RELATED_PRODUCT_CATEGORY ( 'detail', '', ( #177 ) ) ;
#205 = ORIENTED_EDGE ( 'NONE', *, *, #92, .F. ) ;
#206 = FACE_OUTER_BOUND ( 'NONE', #143, .T. ) ;
#207 = CIRCLE ( 'NONE', #33, 3.000000000000001776 ) ;
#208 = AXIS2_PLACEMENT_3D ( 'NONE', #235, #136, #68 ) ;
#209 = APPROVAL_PERSON_ORGANIZATION ( #132, #98, #128 ) ;
#210 = APPROVAL_DATE_TIME ( #230, #237 ) ;
#211 = PLANE ( 'NONE',  #1 ) ;
#212 = VERTEX_POINT ( 'NONE', #227 ) ;
#213 = COORDINATED_UNIVERSAL_TIME_OFFSET ( 1, 0, .AHEAD. ) ;
#214 = AXIS2_PLACEMENT_3D ( 'NONE', #222, #201, #35 ) ;
#215 = ORIENTED_EDGE ( 'NONE', *, *, #181, .T. ) ;
#216 = CARTESIAN_POINT ( 'NONE',  ( 5.586370142149013368E-14, 4.499999999999998224, 16.00000000000000000 ) ) ;
#217 = APPROVAL_PERSON_ORGANIZATION ( #110, #237, #41 ) ;
#218 = FACE_BOUND ( 'NONE', #119, .T. ) ;
#219 = MANIFOLD_SOLID_BREP ( 'Corps-Déplacer/Copier1[2]', #14 ) ;
#220 = FACE_OUTER_BOUND ( 'NONE', #135, .T. ) ;
#221 = DIRECTION ( 'NONE',  ( 0.0000000000000000000, 1.000000000000000000, 0.0000000000000000000 ) ) ;
#222 = CARTESIAN_POINT ( 'NONE',  ( 5.586370142149013368E-14, -1.959434878635765526E-15, 16.00000000000000000 ) ) ;
#223 = ORIENTED_EDGE ( 'NONE', *, *, #91, .T. ) ;
#224 = AXIS2_PLACEMENT_3D ( 'NONE', #83, #240, #243 ) ;
#225 = DIRECTION ( 'NONE',  ( 0.0000000000000000000, 1.000000000000000000, 0.0000000000000000000 ) ) ;
#226 = EDGE_LOOP ( 'NONE', ( #159 ) ) ;
#227 = CARTESIAN_POINT ( 'NONE',  ( 4.064084278413407478E-13, 2.999999999999987566, 116.4000000000000057 ) ) ;
#228 = CALENDAR_DATE ( 2021, 3, 12 ) ;
#229 = DIRECTION ( 'NONE',  ( -3.491481338843133355E-15, 1.224646799147353454E-16, -1.000000000000000000 ) ) ;
#230 = DATE_AND_TIME ( #228, #195 ) ;
#231 = ORIENTED_EDGE ( 'NONE', *, *, #181, .F. ) ;
#232 = CARTESIAN_POINT ( 'NONE',  ( 5.586370142149013368E-14, 3.374459510989177975E-32, 16.00000000000000000 ) ) ;
#233 = APPROVAL_STATUS ( 'not_yet_approved' ) ;
#234 = CARTESIAN_POINT ( 'NONE',  ( 6.493483603032254569E-14, 2.999999999999985789, 18.59807621135333022 ) ) ;
#235 = CARTESIAN_POINT ( 'NONE',  ( 0.0000000000000000000, 0.0000000000000000000, 0.0000000000000000000 ) ) ;
#236 = CC_DESIGN_DATE_AND_TIME_ASSIGNMENT ( #63, #169, ( #142 ) ) ;
#237 = APPROVAL ( #44, 'UNSPECIFIED' ) ;
#238 = CONICAL_SURFACE ( 'NONE', #22, 2.400000000000002576, 0.7853981633974450594 ) ;
#239 = CIRCLE ( 'NONE', #161, 2.999999999999988010 ) ;
#240 = DIRECTION ( 'NONE',  ( -3.491481338843133355E-15, 1.224646799147353454E-16, -1.000000000000000000 ) ) ;
#241 = ORIENTED_EDGE ( 'NONE', *, *, #92, .T. ) ;
#242 = EDGE_LOOP ( 'NONE', ( #117 ) ) ;
#243 = DIRECTION ( 'NONE',  ( 4.275831445896959482E-31, 1.000000000000000000, 1.224646799147353454E-16 ) ) ;
ENDSEC;
END-ISO-10303-21;
