ISO-10303-21;
HEADER;
FILE_DESCRIPTION (( 'STEP AP203' ),
    '1' );
FILE_NAME ('342322.step',
    '2021-12-03T06:48:40',
    ( '' ),
    ( '' ),
    'SwSTEP 2.0',
    'SolidWorks 2019',
    '' );
FILE_SCHEMA (( 'CONFIG_CONTROL_DESIGN' ));
ENDSEC;

DATA;
#1 = LOCAL_TIME ( 7, 48, 40.00000000000000000, #106 ) ;
#2 = APPROVAL_STATUS ( 'not_yet_approved' ) ;
#3 = PLANE ( 'NONE',  #211 ) ;
#4 = DIRECTION ( 'NONE',  ( -3.491481338843133355E-15, 1.224646799147353454E-16, -1.000000000000000000 ) ) ;
#5 = PERSON_AND_ORGANIZATION ( #36, #74 ) ;
#6 = CARTESIAN_POINT ( 'NONE',  ( 5.586370142149013368E-14, -1.959434878635765526E-15, 16.00000000000000000 ) ) ;
#7 = CYLINDRICAL_SURFACE ( 'NONE', #132, 4.449999999999999289 ) ;
#8 = CARTESIAN_POINT ( 'NONE',  ( 4.085033166446466404E-13, -1.432836755002403758E-14, 117.0000000000000000 ) ) ;
#9 = LOCAL_TIME ( 7, 48, 40.00000000000000000, #222 ) ;
#10 = APPLICATION_CONTEXT ( 'configuration controlled 3d designs of mechanical parts and assemblies' ) ;
#11 = FACE_OUTER_BOUND ( 'NONE', #100, .T. ) ;
#12 = CARTESIAN_POINT ( 'NONE',  ( -1.688953421129298028E-30, 5.924051141514337004E-32, -4.837354856632043085E-16 ) ) ;
#13 = AXIS2_PLACEMENT_3D ( 'NONE', #157, #4, #138 ) ;
#14 = VERTEX_POINT ( 'NONE', #235 ) ;
#15 = DIRECTION ( 'NONE',  ( 4.275831445896959482E-31, 1.000000000000000000, 1.224646799147353454E-16 ) ) ;
#16 = DIRECTION ( 'NONE',  ( -4.275831445896959482E-31, -1.000000000000000000, -1.224646799147353454E-16 ) ) ;
#17 = MANIFOLD_SOLID_BREP ( 'Corps-Déplacer/Copier1[1]', #75 ) ;
#18 = DIRECTION ( 'NONE',  ( 0.0000000000000000000, 1.000000000000000000, 0.0000000000000000000 ) ) ;
#19 = DIRECTION ( 'NONE',  ( 0.0000000000000000000, 0.0000000000000000000, 1.000000000000000000 ) ) ;
#20 = ORIENTED_EDGE ( 'NONE', *, *, #152, .F. ) ;
#21 = PERSON_AND_ORGANIZATION_ROLE ( 'classification_officer' ) ;
#22 = FACE_BOUND ( 'NONE', #64, .T. ) ;
#23 = ADVANCED_FACE ( 'NONE', ( #22, #187 ), #203, .T. ) ;
#24 = EDGE_LOOP ( 'NONE', ( #78 ) ) ;
#25 = LOCAL_TIME ( 7, 48, 40.00000000000000000, #126 ) ;
#26 = CC_DESIGN_DATE_AND_TIME_ASSIGNMENT ( #107, #182, ( #97 ) ) ;
#27 = CARTESIAN_POINT ( 'NONE',  ( 4.085033166446466404E-13, -1.432836755002403758E-14, 117.0000000000000000 ) ) ;
#28 = PERSON_AND_ORGANIZATION ( #36, #74 ) ;
#29 = FACE_BOUND ( 'NONE', #156, .T. ) ;
#30 = DIRECTION ( 'NONE',  ( 1.000000000000000000, 0.0000000000000000000, 0.0000000000000000000 ) ) ;
#31 = CC_DESIGN_APPROVAL ( #119, ( #131 ) ) ;
#32 = ADVANCED_FACE ( 'NONE', ( #194 ), #67, .F. ) ;
#33 = VERTEX_POINT ( 'NONE', #221 ) ;
#34 = AXIS2_PLACEMENT_3D ( 'NONE', #27, #101, #172 ) ;
#35 = DIRECTION ( 'NONE',  ( -3.491481338843133355E-15, 1.224646799147353454E-16, -1.000000000000000000 ) ) ;
#36 = PERSON ( 'UNSPECIFIED', 'UNSPECIFIED', 'UNSPECIFIED', ('UNSPECIFIED'), ('UNSPECIFIED'), ('UNSPECIFIED') ) ;
#37 = CIRCLE ( 'NONE', #210, 2.999999999999988010 ) ;
#38 = CC_DESIGN_SECURITY_CLASSIFICATION ( #198, ( #131 ) ) ;
#39 = APPROVAL ( #102, 'UNSPECIFIED' ) ;
#40 = CARTESIAN_POINT ( 'NONE',  ( 1.745740669421563325E-15, -6.123233995736754943E-17, 0.4999999999999990563 ) ) ;
#41 = PRODUCT_DEFINITION_SHAPE ( 'NONE', 'NONE',  #97 ) ;
#42 = ORIENTED_EDGE ( 'NONE', *, *, #151, .T. ) ;
#43 = ORIENTED_EDGE ( 'NONE', *, *, #152, .T. ) ;
#44 = AXIS2_PLACEMENT_3D ( 'NONE', #134, #168, #214 ) ;
#45 = SHAPE_DEFINITION_REPRESENTATION ( #41, #217 ) ;
#46 = ORIENTED_EDGE ( 'NONE', *, *, #166, .F. ) ;
#47 = CARTESIAN_POINT ( 'NONE',  ( 5.586370142149013368E-14, -1.959434878635765526E-15, 16.00000000000000000 ) ) ;
#48 = DATE_TIME_ROLE ( 'classification_date' ) ;
#49 = PERSON_AND_ORGANIZATION ( #36, #74 ) ;
#50 = EDGE_CURVE ( 'NONE', #33, #33, #62, .T. ) ;
#52 = DIRECTION ( 'NONE',  ( 0.0000000000000000000, 1.000000000000000000, 0.0000000000000000000 ) ) ;
#51 = VERTEX_POINT ( 'NONE', #162 ) ;
#53 = VERTEX_POINT ( 'NONE', #120 ) ;
#54 = AXIS2_PLACEMENT_3D ( 'NONE', #240, #19, #30 ) ;
#55 = EDGE_CURVE ( 'NONE', #14, #14, #108, .T. ) ;
#56 = DESIGN_CONTEXT ( 'detailed design', #139, 'design' ) ;
#57 = PERSON_AND_ORGANIZATION ( #36, #74 ) ;
#58 = CC_DESIGN_PERSON_AND_ORGANIZATION_ASSIGNMENT ( #176, #209, ( #131 ) ) ;
#59 = DIRECTION ( 'NONE',  ( 4.275831445896959482E-31, 1.000000000000000000, 1.224646799147353207E-16 ) ) ;
#60 = DATE_AND_TIME ( #91, #25 ) ;
#61 = CARTESIAN_POINT ( 'NONE',  ( 5.586370142149013368E-14, 3.336965516422632356E-32, 16.00000000000000000 ) ) ;
#62 = CIRCLE ( 'NONE', #104, 4.450000000000000178 ) ;
#63 = ORIENTED_EDGE ( 'NONE', *, *, #76, .T. ) ;
#64 = EDGE_LOOP ( 'NONE', ( #42 ) ) ;
#65 = FACE_OUTER_BOUND ( 'NONE', #81, .T. ) ;
#66 = ORIENTED_EDGE ( 'NONE', *, *, #151, .F. ) ;
#67 = PLANE ( 'NONE',  #13 ) ;
#68 = DIRECTION ( 'NONE',  ( -3.491481338843133355E-15, 1.224646799147353454E-16, -1.000000000000000000 ) ) ;
#69 = FACE_OUTER_BOUND ( 'NONE', #188, .T. ) ;
#70 = ADVANCED_FACE ( 'NONE', ( #11, #98 ), #125, .T. ) ;
#71 = APPLICATION_PROTOCOL_DEFINITION ( 'international standard', 'config_control_design', 1994, #10 ) ;
#72 = DIRECTION ( 'NONE',  ( 3.491481338843133355E-15, -1.224646799147353454E-16, 1.000000000000000000 ) ) ;
#73 = MECHANICAL_CONTEXT ( 'NONE', #10, 'mechanical' ) ;
#74 = ORGANIZATION ( 'UNSPECIFIED', 'UNSPECIFIED', '' ) ;
#75 = CLOSED_SHELL ( 'NONE', ( #175, #23, #90, #70, #32 ) ) ;
#76 = EDGE_CURVE ( 'NONE', #96, #96, #121, .T. ) ;
#77 = DIRECTION ( 'NONE',  ( 4.275831445896959482E-31, 1.000000000000000000, 1.224646799147353454E-16 ) ) ;
#78 = ORIENTED_EDGE ( 'NONE', *, *, #50, .T. ) ;
#79 = APPROVAL_PERSON_ORGANIZATION ( #5, #95, #154 ) ;
#80 =( LENGTH_UNIT ( ) NAMED_UNIT ( * ) SI_UNIT ( .MILLI., .METRE. ) );
#81 = EDGE_LOOP ( 'NONE', ( #66 ) ) ;
#82 = CYLINDRICAL_SURFACE ( 'NONE', #146, 2.999999999999994671 ) ;
#83 = DIRECTION ( 'NONE',  ( -3.491481338843133355E-15, 1.224646799147353454E-16, -1.000000000000000000 ) ) ;
#84 = CALENDAR_DATE ( 2021, 3, 12 ) ;
#85 = ORIENTED_EDGE ( 'NONE', *, *, #142, .T. ) ;
#86 = CALENDAR_DATE ( 2021, 3, 12 ) ;
#87 = AXIS2_PLACEMENT_3D ( 'NONE', #94, #227, #205 ) ;
#89 = PLANE ( 'NONE',  #238 ) ;
#88 = CARTESIAN_POINT ( 'NONE',  ( 1.745740669421565100E-15, 4.449999999999999289, 0.4999999999999995559 ) ) ;
#90 = ADVANCED_FACE ( 'NONE', ( #65, #191 ), #82, .T. ) ;
#91 = CALENDAR_DATE ( 2021, 3, 12 ) ;
#92 = DIRECTION ( 'NONE',  ( -4.275831445896959482E-31, -1.000000000000000000, -1.224646799147353207E-16 ) ) ;
#93 = CONICAL_SURFACE ( 'NONE', #225, 3.949999999999997957, 0.7853981633974501664 ) ;
#94 = CARTESIAN_POINT ( 'NONE',  ( 5.586370142149013368E-14, -1.959434878635765526E-15, 16.00000000000000000 ) ) ;
#95 = APPROVAL ( #2, 'UNSPECIFIED' ) ;
#96 = VERTEX_POINT ( 'NONE', #223 ) ;
#97 = PRODUCT_DEFINITION ( 'UNKNOWN', '', #131, #56 ) ;
#98 = FACE_BOUND ( 'NONE', #190, .T. ) ;
#99 = ORIENTED_EDGE ( 'NONE', *, *, #50, .F. ) ;
#100 = EDGE_LOOP ( 'NONE', ( #112 ) ) ;
#101 = DIRECTION ( 'NONE',  ( -3.491481338843133355E-15, 1.224646799147353454E-16, -1.000000000000000000 ) ) ;
#102 = APPROVAL_STATUS ( 'not_yet_approved' ) ;
#103 = MANIFOLD_SOLID_BREP ( 'Corps-Déplacer/Copier1[2]', #174 ) ;
#104 = AXIS2_PLACEMENT_3D ( 'NONE', #47, #212, #232 ) ;
#105 = ADVANCED_FACE ( 'NONE', ( #195 ), #89, .T. ) ;
#106 = COORDINATED_UNIVERSAL_TIME_OFFSET ( 1, 0, .AHEAD. ) ;
#107 = DATE_AND_TIME ( #86, #9 ) ;
#108 = CIRCLE ( 'NONE', #34, 2.400000000000002576 ) ;
#109 = ADVANCED_FACE ( 'NONE', ( #115, #118 ), #7, .T. ) ;
#110 =( GEOMETRIC_REPRESENTATION_CONTEXT ( 3 ) GLOBAL_UNCERTAINTY_ASSIGNED_CONTEXT ( ( #218 ) ) GLOBAL_UNIT_ASSIGNED_CONTEXT ( ( #80, #208, #143 ) ) REPRESENTATION_CONTEXT ( 'NONE', 'WORKASPACE' ) );
#111 = DIRECTION ( 'NONE',  ( -3.491481338843133355E-15, 1.224646799147353454E-16, -1.000000000000000000 ) ) ;
#112 = ORIENTED_EDGE ( 'NONE', *, *, #76, .F. ) ;
#113 = ADVANCED_FACE ( 'NONE', ( #224 ), #3, .T. ) ;
#114 = SECURITY_CLASSIFICATION_LEVEL ( 'unclassified' ) ;
#115 = FACE_OUTER_BOUND ( 'NONE', #24, .T. ) ;
#116 = EDGE_LOOP ( 'NONE', ( #99 ) ) ;
#117 = PERSON_AND_ORGANIZATION_ROLE ( 'design_owner' ) ;
#118 = FACE_OUTER_BOUND ( 'NONE', #234, .T. ) ;
#119 = APPROVAL ( #145, 'UNSPECIFIED' ) ;
#120 = CARTESIAN_POINT ( 'NONE',  ( 5.586370142149013368E-14, 4.449999999999998401, 16.00000000000000000 ) ) ;
#121 = CIRCLE ( 'NONE', #44, 3.000000000000001776 ) ;
#122 = PERSON_AND_ORGANIZATION_ROLE ( 'creator' ) ;
#123 = PLANE ( 'NONE',  #167 ) ;
#124 = APPROVAL_PERSON_ORGANIZATION ( #28, #39, #135 ) ;
#125 = CONICAL_SURFACE ( 'NONE', #193, 2.400000000000002576, 0.7853981633974450594 ) ;
#126 = COORDINATED_UNIVERSAL_TIME_OFFSET ( 1, 0, .AHEAD. ) ;
#127 = CALENDAR_DATE ( 2021, 3, 12 ) ;
#128 = ORIENTED_EDGE ( 'NONE', *, *, #142, .F. ) ;
#129 = EDGE_LOOP ( 'NONE', ( #43 ) ) ;
#130 = CARTESIAN_POINT ( 'NONE',  ( 0.0000000000000000000, 0.0000000000000000000, 0.0000000000000000000 ) ) ;
#131 = PRODUCT_DEFINITION_FORMATION_WITH_SPECIFIED_SOURCE ( 'ANY', '', #177, .NOT_KNOWN. ) ;
#132 = AXIS2_PLACEMENT_3D ( 'NONE', #173, #83, #77 ) ;
#133 = ORIENTED_EDGE ( 'NONE', *, *, #55, .F. ) ;
#134 = CARTESIAN_POINT ( 'NONE',  ( 4.064084278413407478E-13, -1.425488874207519270E-14, 116.4000000000000057 ) ) ;
#135 = APPROVAL_ROLE ( '' ) ;
#136 = APPLICATION_PROTOCOL_DEFINITION ( 'international standard', 'config_control_design', 1994, #139 ) ;
#137 = CC_DESIGN_DATE_AND_TIME_ASSIGNMENT ( #226, #48, ( #198 ) ) ;
#138 = DIRECTION ( 'NONE',  ( 4.275831445896959482E-31, 1.000000000000000000, 1.224646799147353454E-16 ) ) ;
#139 = APPLICATION_CONTEXT ( 'configuration controlled 3d designs of mechanical parts and assemblies' ) ;
#140 = CC_DESIGN_PERSON_AND_ORGANIZATION_ASSIGNMENT ( #49, #117, ( #177 ) ) ;
#141 = APPROVAL_DATE_TIME ( #60, #119 ) ;
#142 = EDGE_CURVE ( 'NONE', #215, #215, #165, .T. ) ;
#143 =( NAMED_UNIT ( * ) SI_UNIT ( $, .STERADIAN. ) SOLID_ANGLE_UNIT ( ) );
#144 = CARTESIAN_POINT ( 'NONE',  ( -1.688953421129298028E-30, 5.924051141514337004E-32, -4.837354856632043085E-16 ) ) ;
#145 = APPROVAL_STATUS ( 'not_yet_approved' ) ;
#146 = AXIS2_PLACEMENT_3D ( 'NONE', #130, #179, #15 ) ;
#147 = DIRECTION ( 'NONE',  ( -3.491481338843133355E-15, 1.224646799147353454E-16, -1.000000000000000000 ) ) ;
#148 = ORIENTED_EDGE ( 'NONE', *, *, #55, .T. ) ;
#149 = CARTESIAN_POINT ( 'NONE',  ( 0.0000000000000000000, 3.949999999999997957, 0.0000000000000000000 ) ) ;
#150 = DIRECTION ( 'NONE',  ( -4.275831445896959482E-31, -1.000000000000000000, -1.224646799147353454E-16 ) ) ;
#151 = EDGE_CURVE ( 'NONE', #51, #51, #37, .T. ) ;
#152 = EDGE_CURVE ( 'NONE', #53, #53, #242, .T. ) ;
#153 = DIRECTION ( 'NONE',  ( 4.327932459297160185E-31, 1.000000000000000000, 1.218204688185960310E-16 ) ) ;
#154 = APPROVAL_ROLE ( '' ) ;
#155 = DATE_AND_TIME ( #84, #216 ) ;
#156 = EDGE_LOOP ( 'NONE', ( #46 ) ) ;
#157 = CARTESIAN_POINT ( 'NONE',  ( 4.085033166446466404E-13, 1.799711739194210245E-32, 117.0000000000000000 ) ) ;
#158 = CIRCLE ( 'NONE', #202, 3.949999999999997957 ) ;
#159 = CC_DESIGN_APPROVAL ( #95, ( #198 ) ) ;
#160 = DATE_AND_TIME ( #127, #1 ) ;
#161 = AXIS2_PLACEMENT_3D ( 'NONE', #6, #236, #52 ) ;
#162 = CARTESIAN_POINT ( 'NONE',  ( 6.463246487669480788E-14, 2.999999999999985789, 18.51147367097488328 ) ) ;
#163 = ADVANCED_FACE ( 'NONE', ( #69, #29 ), #93, .T. ) ;
#164 = PERSON_AND_ORGANIZATION_ROLE ( 'creator' ) ;
#165 = CIRCLE ( 'NONE', #197, 4.449999999999999289 ) ;
#166 = EDGE_CURVE ( 'NONE', #231, #231, #158, .T. ) ;
#167 = AXIS2_PLACEMENT_3D ( 'NONE', #199, #243, #16 ) ;
#168 = DIRECTION ( 'NONE',  ( -3.491481338843133355E-15, 1.224646799147353454E-16, -1.000000000000000000 ) ) ;
#169 = COORDINATED_UNIVERSAL_TIME_OFFSET ( 1, 0, .AHEAD. ) ;
#170 = EDGE_LOOP ( 'NONE', ( #20 ) ) ;
#171 = CC_DESIGN_PERSON_AND_ORGANIZATION_ASSIGNMENT ( #200, #164, ( #97 ) ) ;
#172 = DIRECTION ( 'NONE',  ( 0.0000000000000000000, 1.000000000000000000, 0.0000000000000000000 ) ) ;
#173 = CARTESIAN_POINT ( 'NONE',  ( 0.0000000000000000000, 0.0000000000000000000, 0.0000000000000000000 ) ) ;
#174 = CLOSED_SHELL ( 'NONE', ( #109, #113, #105, #163 ) ) ;
#175 = ADVANCED_FACE ( 'NONE', ( #241 ), #123, .F. ) ;
#176 = PERSON_AND_ORGANIZATION ( #36, #74 ) ;
#177 = PRODUCT ( '342322', '342322', '', ( #73 ) ) ;
#178 = APPROVAL_DATE_TIME ( #160, #39 ) ;
#179 = DIRECTION ( 'NONE',  ( -3.491481338843133355E-15, 1.224646799147353454E-16, -1.000000000000000000 ) ) ;
#180 = CC_DESIGN_PERSON_AND_ORGANIZATION_ASSIGNMENT ( #228, #21, ( #198 ) ) ;
#181 = LOCAL_TIME ( 7, 48, 40.00000000000000000, #169 ) ;
#182 = DATE_TIME_ROLE ( 'creation_date' ) ;
#183 = APPROVAL_PERSON_ORGANIZATION ( #220, #119, #219 ) ;
#184 = PRODUCT_RELATED_PRODUCT_CATEGORY ( 'detail', '', ( #177 ) ) ;
#185 = CARTESIAN_POINT ( 'NONE',  ( 6.463246487669480788E-14, -2.267001697865990092E-15, 18.51147367097488328 ) ) ;
#186 = COORDINATED_UNIVERSAL_TIME_OFFSET ( 1, 0, .AHEAD. ) ;
#187 = FACE_OUTER_BOUND ( 'NONE', #170, .T. ) ;
#188 = EDGE_LOOP ( 'NONE', ( #85 ) ) ;
#189 = DIRECTION ( 'NONE',  ( 4.275831445896959482E-31, 1.000000000000000000, 1.224646799147353454E-16 ) ) ;
#190 = EDGE_LOOP ( 'NONE', ( #148 ) ) ;
#191 = FACE_OUTER_BOUND ( 'NONE', #207, .T. ) ;
#192 = CC_DESIGN_APPROVAL ( #39, ( #97 ) ) ;
#193 = AXIS2_PLACEMENT_3D ( 'NONE', #8, #68, #237 ) ;
#194 = FACE_OUTER_BOUND ( 'NONE', #201, .T. ) ;
#195 = FACE_OUTER_BOUND ( 'NONE', #206, .T. ) ;
#196 = CC_DESIGN_PERSON_AND_ORGANIZATION_ASSIGNMENT ( #57, #122, ( #131 ) ) ;
#197 = AXIS2_PLACEMENT_3D ( 'NONE', #40, #111, #153 ) ;
#198 = SECURITY_CLASSIFICATION ( '', '', #114 ) ;
#199 = CARTESIAN_POINT ( 'NONE',  ( 5.586370142149013368E-14, 3.336965516422632356E-32, 16.00000000000000000 ) ) ;
#200 = PERSON_AND_ORGANIZATION ( #36, #74 ) ;
#201 = EDGE_LOOP ( 'NONE', ( #133 ) ) ;
#202 = AXIS2_PLACEMENT_3D ( 'NONE', #144, #35, #59 ) ;
#203 = CONICAL_SURFACE ( 'NONE', #161, 4.450000000000000178, 0.5235987755983005920 ) ;
#204 = DIRECTION ( 'NONE',  ( 3.491481338843133355E-15, -1.224646799147353454E-16, 1.000000000000000000 ) ) ;
#205 = DIRECTION ( 'NONE',  ( 0.0000000000000000000, 1.000000000000000000, 0.0000000000000000000 ) ) ;
#206 = EDGE_LOOP ( 'NONE', ( #230 ) ) ;
#207 = EDGE_LOOP ( 'NONE', ( #63 ) ) ;
#208 =( NAMED_UNIT ( * ) PLANE_ANGLE_UNIT ( ) SI_UNIT ( $, .RADIAN. ) );
#209 = PERSON_AND_ORGANIZATION_ROLE ( 'design_supplier' ) ;
#210 = AXIS2_PLACEMENT_3D ( 'NONE', #185, #229, #18 ) ;
#211 = AXIS2_PLACEMENT_3D ( 'NONE', #61, #204, #150 ) ;
#212 = DIRECTION ( 'NONE',  ( -3.491481338843133355E-15, 1.224646799147353454E-16, -1.000000000000000000 ) ) ;
#213 = CALENDAR_DATE ( 2021, 3, 12 ) ;
#214 = DIRECTION ( 'NONE',  ( 0.0000000000000000000, 1.000000000000000000, 0.0000000000000000000 ) ) ;
#215 = VERTEX_POINT ( 'NONE', #88 ) ;
#216 = LOCAL_TIME ( 7, 48, 40.00000000000000000, #186 ) ;
#217 = ADVANCED_BREP_SHAPE_REPRESENTATION ( '342322', ( #17, #103, #54 ), #110 ) ;
#218 = UNCERTAINTY_MEASURE_WITH_UNIT (LENGTH_MEASURE( 1.000000000000000082E-05 ), #80, 'distance_accuracy_value', 'NONE');
#219 = APPROVAL_ROLE ( '' ) ;
#220 = PERSON_AND_ORGANIZATION ( #36, #74 ) ;
#221 = CARTESIAN_POINT ( 'NONE',  ( 5.586370142149013368E-14, 4.449999999999998401, 16.00000000000000000 ) ) ;
#222 = COORDINATED_UNIVERSAL_TIME_OFFSET ( 1, 0, .AHEAD. ) ;
#223 = CARTESIAN_POINT ( 'NONE',  ( 4.064084278413407478E-13, 2.999999999999987566, 116.4000000000000057 ) ) ;
#224 = FACE_OUTER_BOUND ( 'NONE', #116, .T. ) ;
#225 = AXIS2_PLACEMENT_3D ( 'NONE', #12, #72, #92 ) ;
#226 = DATE_AND_TIME ( #213, #181 ) ;
#227 = DIRECTION ( 'NONE',  ( -3.491481338843133355E-15, 1.224646799147353454E-16, -1.000000000000000000 ) ) ;
#228 = PERSON_AND_ORGANIZATION ( #36, #74 ) ;
#229 = DIRECTION ( 'NONE',  ( -3.491481338843133355E-15, 1.224646799147353454E-16, -1.000000000000000000 ) ) ;
#230 = ORIENTED_EDGE ( 'NONE', *, *, #166, .T. ) ;
#231 = VERTEX_POINT ( 'NONE', #149 ) ;
#232 = DIRECTION ( 'NONE',  ( 0.0000000000000000000, 1.000000000000000000, 0.0000000000000000000 ) ) ;
#233 = APPROVAL_DATE_TIME ( #155, #95 ) ;
#234 = EDGE_LOOP ( 'NONE', ( #128 ) ) ;
#235 = CARTESIAN_POINT ( 'NONE',  ( 4.085033166446466404E-13, 2.399999999999987921, 117.0000000000000000 ) ) ;
#236 = DIRECTION ( 'NONE',  ( -3.491481338843133355E-15, 1.224646799147353454E-16, -1.000000000000000000 ) ) ;
#237 = DIRECTION ( 'NONE',  ( 0.0000000000000000000, 1.000000000000000000, 0.0000000000000000000 ) ) ;
#238 = AXIS2_PLACEMENT_3D ( 'NONE', #239, #147, #189 ) ;
#239 = CARTESIAN_POINT ( 'NONE',  ( -8.444767105646490139E-31, 2.962025570757168502E-32, -2.418677428316021543E-16 ) ) ;
#240 = CARTESIAN_POINT ( 'NONE',  ( 0.0000000000000000000, 0.0000000000000000000, 0.0000000000000000000 ) ) ;
#241 = FACE_OUTER_BOUND ( 'NONE', #129, .T. ) ;
#242 = CIRCLE ( 'NONE', #87, 4.450000000000000178 ) ;
#243 = DIRECTION ( 'NONE',  ( 3.491481338843133355E-15, -1.224646799147353454E-16, 1.000000000000000000 ) ) ;
ENDSEC;
END-ISO-10303-21;
