ISO-10303-21;
HEADER;
FILE_DESCRIPTION (( 'STEP AP203' ),
    '1' );
FILE_NAME ('342302.STEP',
    '2021-12-03T07:01:53',
    ( '' ),
    ( '' ),
    'SwSTEP 2.0',
    'SolidWorks 2019',
    '' );
FILE_SCHEMA (( 'CONFIG_CONTROL_DESIGN' ));
ENDSEC;

DATA;
#1 = MANIFOLD_SOLID_BREP ( 'Corps-Déplacer/Copier1[1]', #175 ) ;
#2 = PERSON_AND_ORGANIZATION ( #184, #38 ) ;
#3 = FACE_OUTER_BOUND ( 'NONE', #199, .T. ) ;
#4 = AXIS2_PLACEMENT_3D ( 'NONE', #156, #169, #154 ) ;
#5 = PRODUCT_RELATED_PRODUCT_CATEGORY ( 'detail', '', ( #121 ) ) ;
#6 = VERTEX_POINT ( 'NONE', #44 ) ;
#7 = PERSON_AND_ORGANIZATION_ROLE ( 'classification_officer' ) ;
#8 = EDGE_LOOP ( 'NONE', ( #107 ) ) ;
#9 = CC_DESIGN_PERSON_AND_ORGANIZATION_ASSIGNMENT ( #2, #43, ( #61 ) ) ;
#10 = APPROVAL_ROLE ( '' ) ;
#11 = ORIENTED_EDGE ( 'NONE', *, *, #122, .T. ) ;
#12 = PRODUCT_DEFINITION_SHAPE ( 'NONE', 'NONE',  #61 ) ;
#13 = EDGE_CURVE ( 'NONE', #215, #215, #62, .T. ) ;
#14 = SECURITY_CLASSIFICATION ( '', '', #143 ) ;
#15 = EDGE_LOOP ( 'NONE', ( #88 ) ) ;
#16 = CARTESIAN_POINT ( 'NONE',  ( -1.646195106670328599E-30, 5.774075163248152338E-32, -4.714890176717308529E-16 ) ) ;
#17 = EDGE_CURVE ( 'NONE', #159, #159, #213, .T. ) ;
#18 = CARTESIAN_POINT ( 'NONE',  ( 5.586370142149013368E-14, 3.261977527289538929E-32, 16.00000000000000000 ) ) ;
#19 = LOCAL_TIME ( 8, 1, 53.00000000000000000, #218 ) ;
#20 = DIRECTION ( 'NONE',  ( 0.0000000000000000000, 1.000000000000000000, 0.0000000000000000000 ) ) ;
#21 = CARTESIAN_POINT ( 'NONE',  ( -8.230975533351642997E-31, 2.887037581624076169E-32, -2.357445088358654264E-16 ) ) ;
#22 = COORDINATED_UNIVERSAL_TIME_OFFSET ( 1, 0, .AHEAD. ) ;
#23 = EDGE_CURVE ( 'NONE', #6, #6, #105, .T. ) ;
#24 = AXIS2_PLACEMENT_3D ( 'NONE', #73, #193, #135 ) ;
#25 = VERTEX_POINT ( 'NONE', #196 ) ;
#26 = COORDINATED_UNIVERSAL_TIME_OFFSET ( 1, 0, .AHEAD. ) ;
#27 =( LENGTH_UNIT ( ) NAMED_UNIT ( * ) SI_UNIT ( .MILLI., .METRE. ) );
#28 = AXIS2_PLACEMENT_3D ( 'NONE', #153, #76, #74 ) ;
#29 = APPLICATION_CONTEXT ( 'configuration controlled 3d designs of mechanical parts and assemblies' ) ;
#30 = EDGE_LOOP ( 'NONE', ( #203 ) ) ;
#31 = PRODUCT_DEFINITION_FORMATION_WITH_SPECIFIED_SOURCE ( 'ANY', '', #121, .NOT_KNOWN. ) ;
#32 = ORIENTED_EDGE ( 'NONE', *, *, #17, .T. ) ;
#33 = DIRECTION ( 'NONE',  ( 3.491481338843133355E-15, -1.224646799147353454E-16, 1.000000000000000000 ) ) ;
#34 = DIRECTION ( 'NONE',  ( -4.275831445896961234E-31, -1.000000000000000000, -1.224646799147353454E-16 ) ) ;
#35 = APPLICATION_CONTEXT ( 'configuration controlled 3d designs of mechanical parts and assemblies' ) ;
#36 = APPROVAL ( #212, 'UNSPECIFIED' ) ;
#37 = DIRECTION ( 'NONE',  ( 0.0000000000000000000, 1.000000000000000000, 0.0000000000000000000 ) ) ;
#38 = ORGANIZATION ( 'UNSPECIFIED', 'UNSPECIFIED', '' ) ;
#39 = DIRECTION ( 'NONE',  ( -3.491481338843133355E-15, 1.224646799147353454E-16, -1.000000000000000000 ) ) ;
#40 = FACE_OUTER_BOUND ( 'NONE', #15, .T. ) ;
#41 = CALENDAR_DATE ( 2021, 3, 12 ) ;
#42 = CC_DESIGN_APPROVAL ( #36, ( #31 ) ) ;
#43 = PERSON_AND_ORGANIZATION_ROLE ( 'creator' ) ;
#44 = CARTESIAN_POINT ( 'NONE',  ( 5.586370142149013368E-14, 4.349999999999997868, 16.00000000000000000 ) ) ;
#45 =( NAMED_UNIT ( * ) SI_UNIT ( $, .STERADIAN. ) SOLID_ANGLE_UNIT ( ) );
#46 = APPLICATION_PROTOCOL_DEFINITION ( 'international standard', 'config_control_design', 1994, #35 ) ;
#47 = ADVANCED_FACE ( 'NONE', ( #225 ), #112, .T. ) ;
#48 = APPROVAL_DATE_TIME ( #164, #141 ) ;
#49 = AXIS2_PLACEMENT_3D ( 'NONE', #53, #205, #152 ) ;
#50 = ORIENTED_EDGE ( 'NONE', *, *, #17, .F. ) ;
#51 = DIRECTION ( 'NONE',  ( -3.491481338843133355E-15, 1.224646799147353454E-16, -1.000000000000000000 ) ) ;
#52 = AXIS2_PLACEMENT_3D ( 'NONE', #210, #190, #131 ) ;
#53 = CARTESIAN_POINT ( 'NONE',  ( 6.402772256943931963E-14, -2.245790193091491968E-15, 18.33826859021799649 ) ) ;
#54 = EDGE_CURVE ( 'NONE', #115, #115, #162, .T. ) ;
#55 = DIRECTION ( 'NONE',  ( 4.275831445896959482E-31, 1.000000000000000000, 1.224646799147353454E-16 ) ) ;
#56 = PLANE ( 'NONE',  #237 ) ;
#57 = CIRCLE ( 'NONE', #63, 3.849999999999998312 ) ;
#58 = DIRECTION ( 'NONE',  ( 4.275831445896959482E-31, 1.000000000000000000, 1.224646799147353454E-16 ) ) ;
#59 = CALENDAR_DATE ( 2021, 3, 12 ) ;
#60 = PERSON_AND_ORGANIZATION ( #184, #38 ) ;
#61 = PRODUCT_DEFINITION ( 'UNKNOWN', '', #31, #140 ) ;
#62 = CIRCLE ( 'NONE', #67, 2.400000000000000799 ) ;
#63 = AXIS2_PLACEMENT_3D ( 'NONE', #192, #209, #97 ) ;
#64 = CARTESIAN_POINT ( 'NONE',  ( 3.421138828918010427E-46, 3.849999999999998312, 0.0000000000000000000 ) ) ;
#65 = DATE_TIME_ROLE ( 'creation_date' ) ;
#66 = MECHANICAL_CONTEXT ( 'NONE', #29, 'mechanical' ) ;
#67 = AXIS2_PLACEMENT_3D ( 'NONE', #75, #113, #37 ) ;
#68 = CALENDAR_DATE ( 2021, 3, 12 ) ;
#69 = PERSON_AND_ORGANIZATION ( #184, #38 ) ;
#70 = AXIS2_PLACEMENT_3D ( 'NONE', #238, #39, #20 ) ;
#71 = DIRECTION ( 'NONE',  ( -3.491481338843133355E-15, 1.224646799147353454E-16, -1.000000000000000000 ) ) ;
#72 = APPROVAL ( #82, 'UNSPECIFIED' ) ;
#73 = CARTESIAN_POINT ( 'NONE',  ( 4.064084278413407478E-13, -1.425488874207519270E-14, 116.4000000000000057 ) ) ;
#74 = DIRECTION ( 'NONE',  ( 4.275831445896959482E-31, 1.000000000000000000, 1.224646799147353454E-16 ) ) ;
#75 = CARTESIAN_POINT ( 'NONE',  ( 4.085033166446466404E-13, -1.432836755002403758E-14, 117.0000000000000000 ) ) ;
#76 = DIRECTION ( 'NONE',  ( -3.491481338843133355E-15, 1.224646799147353454E-16, -1.000000000000000000 ) ) ;
#77 = LOCAL_TIME ( 8, 1, 53.00000000000000000, #22 ) ;
#78 =( NAMED_UNIT ( * ) PLANE_ANGLE_UNIT ( ) SI_UNIT ( $, .RADIAN. ) );
#79 = APPROVAL_DATE_TIME ( #227, #72 ) ;
#80 = ADVANCED_FACE ( 'NONE', ( #132 ), #56, .T. ) ;
#81 = CALENDAR_DATE ( 2021, 3, 12 ) ;
#82 = APPROVAL_STATUS ( 'not_yet_approved' ) ;
#83 = MANIFOLD_SOLID_BREP ( 'Corps-Déplacer/Copier1[2]', #187 ) ;
#84 = PERSON_AND_ORGANIZATION ( #184, #38 ) ;
#85 = CC_DESIGN_APPROVAL ( #141, ( #14 ) ) ;
#86 = ORIENTED_EDGE ( 'NONE', *, *, #13, .T. ) ;
#87 = ORIENTED_EDGE ( 'NONE', *, *, #54, .F. ) ;
#88 = ORIENTED_EDGE ( 'NONE', *, *, #13, .F. ) ;
#89 = AXIS2_PLACEMENT_3D ( 'NONE', #16, #111, #34 ) ;
#90 = ORIENTED_EDGE ( 'NONE', *, *, #95, .F. ) ;
#91 = DIRECTION ( 'NONE',  ( 0.0000000000000000000, 1.000000000000000000, 0.0000000000000000000 ) ) ;
#92 = ADVANCED_FACE ( 'NONE', ( #224, #127 ), #235, .T. ) ;
#93 = DIRECTION ( 'NONE',  ( 3.491481338843133355E-15, -1.224646799147353454E-16, 1.000000000000000000 ) ) ;
#94 = DIRECTION ( 'NONE',  ( -4.275831445896959482E-31, -1.000000000000000000, -1.224646799147353454E-16 ) ) ;
#95 = EDGE_CURVE ( 'NONE', #25, #25, #200, .T. ) ;
#96 = PLANE ( 'NONE',  #28 ) ;
#97 = DIRECTION ( 'NONE',  ( 4.275831445896960358E-31, 1.000000000000000000, 1.224646799147353454E-16 ) ) ;
#98 = CARTESIAN_POINT ( 'NONE',  ( 1.745740669421565889E-15, 4.349999999999998757, 0.4999999999999997780 ) ) ;
#99 = ADVANCED_FACE ( 'NONE', ( #236, #191 ), #133, .T. ) ;
#100 = CARTESIAN_POINT ( 'NONE',  ( 5.586370142149013368E-14, -1.959434878635765526E-15, 16.00000000000000000 ) ) ;
#101 = CARTESIAN_POINT ( 'NONE',  ( 5.586370142149013368E-14, 4.349999999999997868, 16.00000000000000000 ) ) ;
#102 = ADVANCED_FACE ( 'NONE', ( #40 ), #96, .F. ) ;
#103 = DATE_TIME_ROLE ( 'classification_date' ) ;
#104 = ORIENTED_EDGE ( 'NONE', *, *, #95, .T. ) ;
#105 = CIRCLE ( 'NONE', #4, 4.349999999999999645 ) ;
#106 = EDGE_LOOP ( 'NONE', ( #87 ) ) ;
#107 = ORIENTED_EDGE ( 'NONE', *, *, #151, .T. ) ;
#108 = EDGE_LOOP ( 'NONE', ( #50 ) ) ;
#109 = EDGE_LOOP ( 'NONE', ( #11 ) ) ;
#110 = FACE_OUTER_BOUND ( 'NONE', #198, .T. ) ;
#111 = DIRECTION ( 'NONE',  ( 3.491481338843133355E-15, -1.224646799147353454E-16, 1.000000000000000000 ) ) ;
#112 = PLANE ( 'NONE',  #137 ) ;
#113 = DIRECTION ( 'NONE',  ( -3.491481338843133355E-15, 1.224646799147353454E-16, -1.000000000000000000 ) ) ;
#114 = DIRECTION ( 'NONE',  ( -3.491481338843133355E-15, 1.224646799147353454E-16, -1.000000000000000000 ) ) ;
#115 = VERTEX_POINT ( 'NONE', #98 ) ;
#116 = DIRECTION ( 'NONE',  ( 0.0000000000000000000, 0.0000000000000000000, 1.000000000000000000 ) ) ;
#117 = DATE_AND_TIME ( #81, #232 ) ;
#118 = CARTESIAN_POINT ( 'NONE',  ( 0.0000000000000000000, 0.0000000000000000000, 0.0000000000000000000 ) ) ;
#119 = UNCERTAINTY_MEASURE_WITH_UNIT (LENGTH_MEASURE( 1.000000000000000082E-05 ), #27, 'distance_accuracy_value', 'NONE');
#120 = APPROVAL_ROLE ( '' ) ;
#121 = PRODUCT ( '342302', '342302', '', ( #66 ) ) ;
#122 = EDGE_CURVE ( 'NONE', #160, #160, #220, .T. ) ;
#123 = AXIS2_PLACEMENT_3D ( 'NONE', #167, #51, #55 ) ;
#124 = EDGE_LOOP ( 'NONE', ( #188 ) ) ;
#125 = EDGE_LOOP ( 'NONE', ( #32 ) ) ;
#126 =( GEOMETRIC_REPRESENTATION_CONTEXT ( 3 ) GLOBAL_UNCERTAINTY_ASSIGNED_CONTEXT ( ( #119 ) ) GLOBAL_UNIT_ASSIGNED_CONTEXT ( ( #27, #78, #45 ) ) REPRESENTATION_CONTEXT ( 'NONE', 'WORKASPACE' ) );
#127 = FACE_OUTER_BOUND ( 'NONE', #125, .T. ) ;
#128 = LOCAL_TIME ( 8, 1, 53.00000000000000000, #157 ) ;
#129 = CARTESIAN_POINT ( 'NONE',  ( 5.586370142149013368E-14, 3.261977527289538929E-32, 16.00000000000000000 ) ) ;
#130 = CC_DESIGN_DATE_AND_TIME_ASSIGNMENT ( #161, #103, ( #14 ) ) ;
#131 = DIRECTION ( 'NONE',  ( 4.427425159510887975E-31, 1.000000000000000000, 1.246209393661499619E-16 ) ) ;
#132 = FACE_OUTER_BOUND ( 'NONE', #8, .T. ) ;
#133 = CONICAL_SURFACE ( 'NONE', #70, 2.400000000000000799, 0.7853981633974461696 ) ;
#134 = APPROVAL_PERSON_ORGANIZATION ( #179, #141, #10 ) ;
#135 = DIRECTION ( 'NONE',  ( 0.0000000000000000000, 1.000000000000000000, 0.0000000000000000000 ) ) ;
#136 = PERSON_AND_ORGANIZATION ( #184, #38 ) ;
#137 = AXIS2_PLACEMENT_3D ( 'NONE', #18, #93, #155 ) ;
#138 = CC_DESIGN_SECURITY_CLASSIFICATION ( #14, ( #31 ) ) ;
#139 = PERSON_AND_ORGANIZATION_ROLE ( 'design_owner' ) ;
#140 = DESIGN_CONTEXT ( 'detailed design', #35, 'design' ) ;
#141 = APPROVAL ( #186, 'UNSPECIFIED' ) ;
#142 = VERTEX_POINT ( 'NONE', #64 ) ;
#143 = SECURITY_CLASSIFICATION_LEVEL ( 'unclassified' ) ;
#144 = EDGE_LOOP ( 'NONE', ( #202 ) ) ;
#145 = APPROVAL_DATE_TIME ( #117, #36 ) ;
#146 = PERSON_AND_ORGANIZATION_ROLE ( 'creator' ) ;
#147 = EDGE_LOOP ( 'NONE', ( #86 ) ) ;
#148 = SHAPE_DEFINITION_REPRESENTATION ( #12, #222 ) ;
#149 = AXIS2_PLACEMENT_3D ( 'NONE', #129, #33, #94 ) ;
#150 = APPROVAL_PERSON_ORGANIZATION ( #60, #36, #195 ) ;
#151 = EDGE_CURVE ( 'NONE', #142, #142, #57, .T. ) ;
#152 = DIRECTION ( 'NONE',  ( 0.0000000000000000000, 1.000000000000000000, 0.0000000000000000000 ) ) ;
#153 = CARTESIAN_POINT ( 'NONE',  ( 4.085033166446466404E-13, 1.799711739194208876E-32, 117.0000000000000000 ) ) ;
#154 = DIRECTION ( 'NONE',  ( 0.0000000000000000000, 1.000000000000000000, 0.0000000000000000000 ) ) ;
#155 = DIRECTION ( 'NONE',  ( -4.275831445896959482E-31, -1.000000000000000000, -1.224646799147353454E-16 ) ) ;
#156 = CARTESIAN_POINT ( 'NONE',  ( 5.586370142149013368E-14, -1.959434878635765526E-15, 16.00000000000000000 ) ) ;
#157 = COORDINATED_UNIVERSAL_TIME_OFFSET ( 1, 0, .AHEAD. ) ;
#158 = DATE_AND_TIME ( #41, #128 ) ;
#159 = VERTEX_POINT ( 'NONE', #211 ) ;
#160 = VERTEX_POINT ( 'NONE', #101 ) ;
#161 = DATE_AND_TIME ( #68, #19 ) ;
#162 = CIRCLE ( 'NONE', #52, 4.349999999999998757 ) ;
#163 = ADVANCED_FACE ( 'NONE', ( #166, #170 ), #226, .T. ) ;
#164 = DATE_AND_TIME ( #229, #165 ) ;
#165 = LOCAL_TIME ( 8, 1, 53.00000000000000000, #182 ) ;
#166 = FACE_OUTER_BOUND ( 'NONE', #109, .T. ) ;
#167 = CARTESIAN_POINT ( 'NONE',  ( 0.0000000000000000000, 0.0000000000000000000, 0.0000000000000000000 ) ) ;
#168 = FACE_BOUND ( 'NONE', #180, .T. ) ;
#169 = DIRECTION ( 'NONE',  ( -3.491481338843133355E-15, 1.224646799147353454E-16, -1.000000000000000000 ) ) ;
#170 = FACE_OUTER_BOUND ( 'NONE', #106, .T. ) ;
#171 = CC_DESIGN_PERSON_AND_ORGANIZATION_ASSIGNMENT ( #69, #233, ( #31 ) ) ;
#172 = PERSON_AND_ORGANIZATION ( #184, #38 ) ;
#173 = CC_DESIGN_PERSON_AND_ORGANIZATION_ASSIGNMENT ( #84, #146, ( #31 ) ) ;
#174 = APPLICATION_PROTOCOL_DEFINITION ( 'international standard', 'config_control_design', 1994, #29 ) ;
#175 = CLOSED_SHELL ( 'NONE', ( #183, #243, #92, #99, #102 ) ) ;
#176 = AXIS2_PLACEMENT_3D ( 'NONE', #100, #177, #194 ) ;
#177 = DIRECTION ( 'NONE',  ( -3.491481338843133355E-15, 1.224646799147353454E-16, -1.000000000000000000 ) ) ;
#178 = PERSON_AND_ORGANIZATION ( #184, #38 ) ;
#179 = PERSON_AND_ORGANIZATION ( #184, #38 ) ;
#180 = EDGE_LOOP ( 'NONE', ( #104 ) ) ;
#181 = CONICAL_SURFACE ( 'NONE', #176, 4.349999999999999645, 0.5235987755983002589 ) ;
#182 = COORDINATED_UNIVERSAL_TIME_OFFSET ( 1, 0, .AHEAD. ) ;
#183 = ADVANCED_FACE ( 'NONE', ( #204 ), #223, .F. ) ;
#184 = PERSON ( 'UNSPECIFIED', 'UNSPECIFIED', 'UNSPECIFIED', ('UNSPECIFIED'), ('UNSPECIFIED'), ('UNSPECIFIED') ) ;
#185 = ORIENTED_EDGE ( 'NONE', *, *, #54, .T. ) ;
#186 = APPROVAL_STATUS ( 'not_yet_approved' ) ;
#187 = CLOSED_SHELL ( 'NONE', ( #163, #47, #80, #231 ) ) ;
#188 = ORIENTED_EDGE ( 'NONE', *, *, #23, .T. ) ;
#189 = FACE_BOUND ( 'NONE', #144, .T. ) ;
#190 = DIRECTION ( 'NONE',  ( -3.491481338843133355E-15, 1.224646799147353454E-16, -1.000000000000000000 ) ) ;
#191 = FACE_BOUND ( 'NONE', #147, .T. ) ;
#192 = CARTESIAN_POINT ( 'NONE',  ( -1.646195106670328599E-30, 5.774075163248152338E-32, -4.714890176717308529E-16 ) ) ;
#193 = DIRECTION ( 'NONE',  ( -3.491481338843133355E-15, 1.224646799147353454E-16, -1.000000000000000000 ) ) ;
#194 = DIRECTION ( 'NONE',  ( 0.0000000000000000000, 1.000000000000000000, 0.0000000000000000000 ) ) ;
#195 = APPROVAL_ROLE ( '' ) ;
#196 = CARTESIAN_POINT ( 'NONE',  ( 6.402772256943931963E-14, 2.999999999999985789, 18.33826859021799649 ) ) ;
#197 = CC_DESIGN_DATE_AND_TIME_ASSIGNMENT ( #158, #65, ( #61 ) ) ;
#198 = EDGE_LOOP ( 'NONE', ( #185 ) ) ;
#199 = EDGE_LOOP ( 'NONE', ( #230 ) ) ;
#200 = CIRCLE ( 'NONE', #49, 2.999999999999988010 ) ;
#201 = AXIS2_PLACEMENT_3D ( 'NONE', #240, #221, #58 ) ;
#202 = ORIENTED_EDGE ( 'NONE', *, *, #151, .F. ) ;
#203 = ORIENTED_EDGE ( 'NONE', *, *, #122, .F. ) ;
#204 = FACE_OUTER_BOUND ( 'NONE', #124, .T. ) ;
#205 = DIRECTION ( 'NONE',  ( -3.491481338843133355E-15, 1.224646799147353454E-16, -1.000000000000000000 ) ) ;
#206 = DIRECTION ( 'NONE',  ( 4.275831445896959482E-31, 1.000000000000000000, 1.224646799147353454E-16 ) ) ;
#207 = AXIS2_PLACEMENT_3D ( 'NONE', #239, #114, #91 ) ;
#208 = CONICAL_SURFACE ( 'NONE', #89, 3.849999999999998312, 0.7853981633974490562 ) ;
#209 = DIRECTION ( 'NONE',  ( -3.491481338843133355E-15, 1.224646799147353454E-16, -1.000000000000000000 ) ) ;
#210 = CARTESIAN_POINT ( 'NONE',  ( 1.745740669421564114E-15, -6.123233995736758640E-17, 0.4999999999999992784 ) ) ;
#211 = CARTESIAN_POINT ( 'NONE',  ( 4.064084278413407478E-13, 2.999999999999987121, 116.4000000000000057 ) ) ;
#212 = APPROVAL_STATUS ( 'not_yet_approved' ) ;
#213 = CIRCLE ( 'NONE', #24, 3.000000000000001332 ) ;
#214 = AXIS2_PLACEMENT_3D ( 'NONE', #118, #116, #228 ) ;
#215 = VERTEX_POINT ( 'NONE', #242 ) ;
#216 = APPROVAL_PERSON_ORGANIZATION ( #172, #72, #120 ) ;
#217 = EDGE_LOOP ( 'NONE', ( #90 ) ) ;
#218 = COORDINATED_UNIVERSAL_TIME_OFFSET ( 1, 0, .AHEAD. ) ;
#219 = CC_DESIGN_PERSON_AND_ORGANIZATION_ASSIGNMENT ( #178, #7, ( #14 ) ) ;
#220 = CIRCLE ( 'NONE', #207, 4.349999999999999645 ) ;
#221 = DIRECTION ( 'NONE',  ( -3.491481338843133355E-15, 1.224646799147353454E-16, -1.000000000000000000 ) ) ;
#222 = ADVANCED_BREP_SHAPE_REPRESENTATION ( '342302', ( #1, #83, #214 ), #126 ) ;
#223 = PLANE ( 'NONE',  #149 ) ;
#224 = FACE_OUTER_BOUND ( 'NONE', #217, .T. ) ;
#225 = FACE_OUTER_BOUND ( 'NONE', #30, .T. ) ;
#226 = CYLINDRICAL_SURFACE ( 'NONE', #201, 4.349999999999999645 ) ;
#227 = DATE_AND_TIME ( #59, #77 ) ;
#228 = DIRECTION ( 'NONE',  ( 1.000000000000000000, 0.0000000000000000000, 0.0000000000000000000 ) ) ;
#229 = CALENDAR_DATE ( 2021, 3, 12 ) ;
#230 = ORIENTED_EDGE ( 'NONE', *, *, #23, .F. ) ;
#231 = ADVANCED_FACE ( 'NONE', ( #110, #189 ), #208, .T. ) ;
#232 = LOCAL_TIME ( 8, 1, 53.00000000000000000, #26 ) ;
#233 = PERSON_AND_ORGANIZATION_ROLE ( 'design_supplier' ) ;
#234 = CC_DESIGN_PERSON_AND_ORGANIZATION_ASSIGNMENT ( #136, #139, ( #121 ) ) ;
#235 = CYLINDRICAL_SURFACE ( 'NONE', #123, 2.999999999999994671 ) ;
#236 = FACE_OUTER_BOUND ( 'NONE', #108, .T. ) ;
#237 = AXIS2_PLACEMENT_3D ( 'NONE', #21, #71, #206 ) ;
#238 = CARTESIAN_POINT ( 'NONE',  ( 4.085033166446466404E-13, -1.432836755002403758E-14, 117.0000000000000000 ) ) ;
#239 = CARTESIAN_POINT ( 'NONE',  ( 5.586370142149013368E-14, -1.959434878635765526E-15, 16.00000000000000000 ) ) ;
#240 = CARTESIAN_POINT ( 'NONE',  ( 0.0000000000000000000, 0.0000000000000000000, 0.0000000000000000000 ) ) ;
#241 = CC_DESIGN_APPROVAL ( #72, ( #61 ) ) ;
#242 = CARTESIAN_POINT ( 'NONE',  ( 4.085033166446466404E-13, 2.399999999999986144, 117.0000000000000000 ) ) ;
#243 = ADVANCED_FACE ( 'NONE', ( #168, #3 ), #181, .T. ) ;
ENDSEC;
END-ISO-10303-21;
