ISO-10303-21;
HEADER;
FILE_DESCRIPTION (( 'STEP AP203' ),
    '1' );
FILE_NAME ('342284.step',
    '2021-12-03T06:48:40',
    ( '' ),
    ( '' ),
    'SwSTEP 2.0',
    'SolidWorks 2019',
    '' );
FILE_SCHEMA (( 'CONFIG_CONTROL_DESIGN' ));
ENDSEC;

DATA;
#1 = DIRECTION ( 'NONE',  ( -3.491481338843133355E-15, 1.224646799147353454E-16, -1.000000000000000000 ) ) ;
#2 = DIRECTION ( 'NONE',  ( -4.275831445896959482E-31, -1.000000000000000000, -1.224646799147353454E-16 ) ) ;
#3 =( LENGTH_UNIT ( ) NAMED_UNIT ( * ) SI_UNIT ( .MILLI., .METRE. ) );
#4 = ORGANIZATION ( 'UNSPECIFIED', 'UNSPECIFIED', '' ) ;
#5 = ORIENTED_EDGE ( 'NONE', *, *, #114, .F. ) ;
#6 = DATE_AND_TIME ( #199, #135 ) ;
#7 = EDGE_LOOP ( 'NONE', ( #86 ) ) ;
#8 = APPROVAL_DATE_TIME ( #126, #147 ) ;
#9 = ORIENTED_EDGE ( 'NONE', *, *, #52, .T. ) ;
#10 = PERSON_AND_ORGANIZATION ( #217, #4 ) ;
#11 = AXIS2_PLACEMENT_3D ( 'NONE', #70, #54, #133 ) ;
#12 = AXIS2_PLACEMENT_3D ( 'NONE', #41, #50, #81 ) ;
#13 = PERSON_AND_ORGANIZATION_ROLE ( 'creator' ) ;
#14 = CARTESIAN_POINT ( 'NONE',  ( 5.586370142149013368E-14, -1.959434878635765526E-15, 16.00000000000000000 ) ) ;
#15 = ADVANCED_FACE ( 'NONE', ( #123 ), #125, .T. ) ;
#16 = CARTESIAN_POINT ( 'NONE',  ( 4.085033166446466404E-13, 1.799711739194210245E-32, 117.0000000000000000 ) ) ;
#17 = AXIS2_PLACEMENT_3D ( 'NONE', #88, #195, #122 ) ;
#18 = FACE_BOUND ( 'NONE', #234, .T. ) ;
#19 = VERTEX_POINT ( 'NONE', #226 ) ;
#20 = FACE_OUTER_BOUND ( 'NONE', #29, .T. ) ;
#21 = CIRCLE ( 'NONE', #11, 2.400000000000002576 ) ;
#22 = CIRCLE ( 'NONE', #102, 3.000000000000001776 ) ;
#23 = DIRECTION ( 'NONE',  ( 4.275831445896960358E-31, 1.000000000000000000, 1.224646799147353454E-16 ) ) ;
#24 = ORIENTED_EDGE ( 'NONE', *, *, #167, .T. ) ;
#25 = EDGE_LOOP ( 'NONE', ( #53 ) ) ;
#26 = CALENDAR_DATE ( 2021, 3, 12 ) ;
#27 = ORIENTED_EDGE ( 'NONE', *, *, #209, .F. ) ;
#28 = PERSON_AND_ORGANIZATION ( #217, #4 ) ;
#29 = EDGE_LOOP ( 'NONE', ( #137 ) ) ;
#30 = PRODUCT_DEFINITION ( 'UNKNOWN', '', #48, #99 ) ;
#31 = CARTESIAN_POINT ( 'NONE',  ( 5.586370142149013368E-14, 3.194488337069755391E-32, 16.00000000000000000 ) ) ;
#32 = AXIS2_PLACEMENT_3D ( 'NONE', #203, #1, #23 ) ;
#33 = EDGE_CURVE ( 'NONE', #187, #187, #46, .T. ) ;
#34 = CALENDAR_DATE ( 2021, 3, 12 ) ;
#35 = FACE_OUTER_BOUND ( 'NONE', #213, .T. ) ;
#36 = CIRCLE ( 'NONE', #69, 4.259999999999999787 ) ;
#37 = CC_DESIGN_DATE_AND_TIME_ASSIGNMENT ( #6, #89, ( #80 ) ) ;
#38 = FACE_OUTER_BOUND ( 'NONE', #163, .T. ) ;
#39 = ADVANCED_FACE ( 'NONE', ( #196, #108 ), #211, .T. ) ;
#40 = LOCAL_TIME ( 7, 48, 40.00000000000000000, #55 ) ;
#41 = CARTESIAN_POINT ( 'NONE',  ( 0.0000000000000000000, 0.0000000000000000000, 0.0000000000000000000 ) ) ;
#42 = DIRECTION ( 'NONE',  ( 0.0000000000000000000, 1.000000000000000000, 0.0000000000000000000 ) ) ;
#43 = FACE_BOUND ( 'NONE', #127, .T. ) ;
#44 = MANIFOLD_SOLID_BREP ( 'Corps-Déplacer/Copier1[2]', #139 ) ;
#45 = EDGE_CURVE ( 'NONE', #228, #228, #206, .T. ) ;
#46 = CIRCLE ( 'NONE', #79, 4.259999999999999787 ) ;
#47 = CARTESIAN_POINT ( 'NONE',  ( 6.348345449290938148E-14, 2.999999999999985789, 18.18238401753680122 ) ) ;
#48 = PRODUCT_DEFINITION_FORMATION_WITH_SPECIFIED_SOURCE ( 'ANY', '', #94, .NOT_KNOWN. ) ;
#49 = FACE_OUTER_BOUND ( 'NONE', #110, .T. ) ;
#50 = DIRECTION ( 'NONE',  ( -3.491481338843133355E-15, 1.224646799147353454E-16, -1.000000000000000000 ) ) ;
#51 = PERSON_AND_ORGANIZATION ( #217, #4 ) ;
#52 = EDGE_CURVE ( 'NONE', #173, #173, #21, .T. ) ;
#53 = ORIENTED_EDGE ( 'NONE', *, *, #45, .F. ) ;
#54 = DIRECTION ( 'NONE',  ( -3.491481338843133355E-15, 1.224646799147353454E-16, -1.000000000000000000 ) ) ;
#55 = COORDINATED_UNIVERSAL_TIME_OFFSET ( 1, 0, .AHEAD. ) ;
#56 = PERSON_AND_ORGANIZATION ( #217, #4 ) ;
#57 = ORIENTED_EDGE ( 'NONE', *, *, #114, .T. ) ;
#58 = APPLICATION_CONTEXT ( 'configuration controlled 3d designs of mechanical parts and assemblies' ) ;
#59 = ADVANCED_FACE ( 'NONE', ( #49 ), #87, .T. ) ;
#61 = CARTESIAN_POINT ( 'NONE',  ( 5.586370142149013368E-14, -1.959434878635765526E-15, 16.00000000000000000 ) ) ;
#60 = DATE_TIME_ROLE ( 'creation_date' ) ;
#62 = AXIS2_PLACEMENT_3D ( 'NONE', #119, #103, #67 ) ;
#63 = CC_DESIGN_PERSON_AND_ORGANIZATION_ASSIGNMENT ( #28, #109, ( #94 ) ) ;
#64 = DIRECTION ( 'NONE',  ( 4.275831445896959482E-31, 1.000000000000000000, 1.224646799147353454E-16 ) ) ;
#65 = FACE_OUTER_BOUND ( 'NONE', #229, .T. ) ;
#66 = CARTESIAN_POINT ( 'NONE',  ( 3.421138828918010427E-46, 3.759999999999998010, 0.0000000000000000000 ) ) ;
#67 = DIRECTION ( 'NONE',  ( 0.0000000000000000000, 1.000000000000000000, 0.0000000000000000000 ) ) ;
#68 = APPLICATION_CONTEXT ( 'configuration controlled 3d designs of mechanical parts and assemblies' ) ;
#69 = AXIS2_PLACEMENT_3D ( 'NONE', #61, #166, #151 ) ;
#70 = CARTESIAN_POINT ( 'NONE',  ( 4.085033166446466404E-13, -1.432836755002403758E-14, 117.0000000000000000 ) ) ;
#71 = ADVANCED_FACE ( 'NONE', ( #76, #35 ), #164, .T. ) ;
#72 = PERSON_AND_ORGANIZATION ( #217, #4 ) ;
#73 = DIRECTION ( 'NONE',  ( -3.491481338843133355E-15, 1.224646799147353454E-16, -1.000000000000000000 ) ) ;
#74 = COORDINATED_UNIVERSAL_TIME_OFFSET ( 1, 0, .AHEAD. ) ;
#75 = PERSON_AND_ORGANIZATION ( #217, #4 ) ;
#76 = FACE_BOUND ( 'NONE', #7, .T. ) ;
#77 = CC_DESIGN_PERSON_AND_ORGANIZATION_ASSIGNMENT ( #72, #144, ( #48 ) ) ;
#78 = DIRECTION ( 'NONE',  ( -3.491481338843133355E-15, 1.224646799147353454E-16, -1.000000000000000000 ) ) ;
#79 = AXIS2_PLACEMENT_3D ( 'NONE', #153, #73, #193 ) ;
#80 = SECURITY_CLASSIFICATION ( '', '', #107 ) ;
#81 = DIRECTION ( 'NONE',  ( 4.275831445896959482E-31, 1.000000000000000000, 1.224646799147353454E-16 ) ) ;
#82 = CC_DESIGN_PERSON_AND_ORGANIZATION_ASSIGNMENT ( #56, #175, ( #80 ) ) ;
#83 = AXIS2_PLACEMENT_3D ( 'NONE', #16, #149, #64 ) ;
#84 = VERTEX_POINT ( 'NONE', #66 ) ;
#85 = CARTESIAN_POINT ( 'NONE',  ( 1.745740669421566678E-15, 4.259999999999998899, 0.5000000000000000000 ) ) ;
#86 = ORIENTED_EDGE ( 'NONE', *, *, #45, .T. ) ;
#87 = PLANE ( 'NONE',  #192 ) ;
#88 = CARTESIAN_POINT ( 'NONE',  ( 0.0000000000000000000, 0.0000000000000000000, 0.0000000000000000000 ) ) ;
#89 = DATE_TIME_ROLE ( 'classification_date' ) ;
#90 = ORIENTED_EDGE ( 'NONE', *, *, #148, .F. ) ;
#91 = PERSON_AND_ORGANIZATION_ROLE ( 'creator' ) ;
#92 = EDGE_LOOP ( 'NONE', ( #198 ) ) ;
#93 = AXIS2_PLACEMENT_3D ( 'NONE', #120, #104, #221 ) ;
#94 = PRODUCT ( '342284', '342284', '', ( #191 ) ) ;
#96 = DIRECTION ( 'NONE',  ( 0.0000000000000000000, 1.000000000000000000, 0.0000000000000000000 ) ) ;
#95 = DIRECTION ( 'NONE',  ( -3.491481338843133355E-15, 1.224646799147353454E-16, -1.000000000000000000 ) ) ;
#97 = ADVANCED_FACE ( 'NONE', ( #20 ), #222, .F. ) ;
#98 = AXIS2_PLACEMENT_3D ( 'NONE', #31, #180, #2 ) ;
#99 = DESIGN_CONTEXT ( 'detailed design', #68, 'design' ) ;
#100 = SHAPE_DEFINITION_REPRESENTATION ( #183, #233 ) ;
#101 = PLANE ( 'NONE',  #169 ) ;
#102 = AXIS2_PLACEMENT_3D ( 'NONE', #105, #216, #96 ) ;
#103 = DIRECTION ( 'NONE',  ( -3.491481338843133355E-15, 1.224646799147353454E-16, -1.000000000000000000 ) ) ;
#104 = DIRECTION ( 'NONE',  ( 3.491481338843133355E-15, -1.224646799147353454E-16, 1.000000000000000000 ) ) ;
#105 = CARTESIAN_POINT ( 'NONE',  ( 4.064084278413407478E-13, -1.425488874207519270E-14, 116.4000000000000057 ) ) ;
#106 = APPROVAL ( #235, 'UNSPECIFIED' ) ;
#107 = SECURITY_CLASSIFICATION_LEVEL ( 'unclassified' ) ;
#108 = FACE_OUTER_BOUND ( 'NONE', #92, .T. ) ;
#109 = PERSON_AND_ORGANIZATION_ROLE ( 'design_owner' ) ;
#110 = EDGE_LOOP ( 'NONE', ( #189 ) ) ;
#111 = APPROVAL_ROLE ( '' ) ;
#112 = CLOSED_SHELL ( 'NONE', ( #131, #71, #39, #182, #97 ) ) ;
#113 = AXIS2_PLACEMENT_3D ( 'NONE', #202, #95, #238 ) ;
#114 = EDGE_CURVE ( 'NONE', #118, #118, #134, .T. ) ;
#115 = CC_DESIGN_APPROVAL ( #124, ( #48 ) ) ;
#116 = FACE_OUTER_BOUND ( 'NONE', #142, .T. ) ;
#117 = APPROVAL_PERSON_ORGANIZATION ( #208, #147, #161 ) ;
#118 = VERTEX_POINT ( 'NONE', #85 ) ;
#119 = CARTESIAN_POINT ( 'NONE',  ( 6.348345449290938148E-14, -2.226699838794443933E-15, 18.18238401753680122 ) ) ;
#120 = CARTESIAN_POINT ( 'NONE',  ( -1.607712623657255763E-30, 5.639096782808583073E-32, -4.604671964794046738E-16 ) ) ;
#121 = DIRECTION ( 'NONE',  ( -3.491481338843133355E-15, 1.224646799147353454E-16, -1.000000000000000000 ) ) ;
#122 = DIRECTION ( 'NONE',  ( 1.000000000000000000, 0.0000000000000000000, 0.0000000000000000000 ) ) ;
#123 = FACE_OUTER_BOUND ( 'NONE', #160, .T. ) ;
#124 = APPROVAL ( #231, 'UNSPECIFIED' ) ;
#125 = PLANE ( 'NONE',  #98 ) ;
#126 = DATE_AND_TIME ( #26, #40 ) ;
#127 = EDGE_LOOP ( 'NONE', ( #27 ) ) ;
#128 = MANIFOLD_SOLID_BREP ( 'Corps-Déplacer/Copier1[1]', #112 ) ;
#129 = LOCAL_TIME ( 7, 48, 40.00000000000000000, #74 ) ;
#130 = UNCERTAINTY_MEASURE_WITH_UNIT (LENGTH_MEASURE( 1.000000000000000082E-05 ), #3, 'distance_accuracy_value', 'NONE');
#131 = ADVANCED_FACE ( 'NONE', ( #38 ), #101, .F. ) ;
#132 = CARTESIAN_POINT ( 'NONE',  ( 1.745740669421564903E-15, -6.123233995736761105E-17, 0.4999999999999994449 ) ) ;
#133 = DIRECTION ( 'NONE',  ( 0.0000000000000000000, 1.000000000000000000, 0.0000000000000000000 ) ) ;
#134 = CIRCLE ( 'NONE', #145, 4.259999999999998899 ) ;
#135 = LOCAL_TIME ( 7, 48, 40.00000000000000000, #138 ) ;
#136 = CARTESIAN_POINT ( 'NONE',  ( -8.038563118286278817E-31, 2.819548391404291536E-32, -2.302335982397023369E-16 ) ) ;
#137 = ORIENTED_EDGE ( 'NONE', *, *, #52, .F. ) ;
#138 = COORDINATED_UNIVERSAL_TIME_OFFSET ( 1, 0, .AHEAD. ) ;
#139 = CLOSED_SHELL ( 'NONE', ( #185, #15, #59, #236 ) ) ;
#140 = APPLICATION_PROTOCOL_DEFINITION ( 'international standard', 'config_control_design', 1994, #68 ) ;
#141 = DATE_AND_TIME ( #162, #146 ) ;
#142 = EDGE_LOOP ( 'NONE', ( #5 ) ) ;
#143 = CALENDAR_DATE ( 2021, 3, 12 ) ;
#144 = PERSON_AND_ORGANIZATION_ROLE ( 'design_supplier' ) ;
#145 = AXIS2_PLACEMENT_3D ( 'NONE', #132, #239, #204 ) ;
#146 = LOCAL_TIME ( 7, 48, 40.00000000000000000, #197 ) ;
#147 = APPROVAL ( #177, 'UNSPECIFIED' ) ;
#148 = EDGE_CURVE ( 'NONE', #19, #19, #22, .T. ) ;
#149 = DIRECTION ( 'NONE',  ( -3.491481338843133355E-15, 1.224646799147353454E-16, -1.000000000000000000 ) ) ;
#150 = CYLINDRICAL_SURFACE ( 'NONE', #12, 4.259999999999999787 ) ;
#151 = DIRECTION ( 'NONE',  ( 0.0000000000000000000, 1.000000000000000000, 0.0000000000000000000 ) ) ;
#152 = VERTEX_POINT ( 'NONE', #223 ) ;
#153 = CARTESIAN_POINT ( 'NONE',  ( 5.586370142149013368E-14, -1.959434878635765526E-15, 16.00000000000000000 ) ) ;
#154 =( NAMED_UNIT ( * ) SI_UNIT ( $, .STERADIAN. ) SOLID_ANGLE_UNIT ( ) );
#155 = CARTESIAN_POINT ( 'NONE',  ( 0.0000000000000000000, 0.0000000000000000000, 0.0000000000000000000 ) ) ;
#156 = CONICAL_SURFACE ( 'NONE', #113, 2.400000000000002576, 0.7853981633974450594 ) ;
#157 = CC_DESIGN_DATE_AND_TIME_ASSIGNMENT ( #141, #60, ( #30 ) ) ;
#158 = CC_DESIGN_PERSON_AND_ORGANIZATION_ASSIGNMENT ( #75, #13, ( #48 ) ) ;
#159 = ORIENTED_EDGE ( 'NONE', *, *, #33, .T. ) ;
#160 = EDGE_LOOP ( 'NONE', ( #210 ) ) ;
#161 = APPROVAL_ROLE ( '' ) ;
#162 = CALENDAR_DATE ( 2021, 3, 12 ) ;
#163 = EDGE_LOOP ( 'NONE', ( #159 ) ) ;
#164 = CONICAL_SURFACE ( 'NONE', #240, 4.259999999999999787, 0.5235987755982999259 ) ;
#165 = CC_DESIGN_APPROVAL ( #106, ( #80 ) ) ;
#166 = DIRECTION ( 'NONE',  ( -3.491481338843133355E-15, 1.224646799147353454E-16, -1.000000000000000000 ) ) ;
#167 = EDGE_CURVE ( 'NONE', #152, #152, #36, .T. ) ;
#168 = FACE_OUTER_BOUND ( 'NONE', #172, .T. ) ;
#169 = AXIS2_PLACEMENT_3D ( 'NONE', #243, #232, #224 ) ;
#170 =( NAMED_UNIT ( * ) PLANE_ANGLE_UNIT ( ) SI_UNIT ( $, .RADIAN. ) );
#171 = CC_DESIGN_PERSON_AND_ORGANIZATION_ASSIGNMENT ( #51, #91, ( #30 ) ) ;
#172 = EDGE_LOOP ( 'NONE', ( #57 ) ) ;
#173 = VERTEX_POINT ( 'NONE', #242 ) ;
#174 = APPROVAL_PERSON_ORGANIZATION ( #10, #106, #215 ) ;
#175 = PERSON_AND_ORGANIZATION_ROLE ( 'classification_officer' ) ;
#176 = DIRECTION ( 'NONE',  ( -3.491481338843133355E-15, 1.224646799147353454E-16, -1.000000000000000000 ) ) ;
#177 = APPROVAL_STATUS ( 'not_yet_approved' ) ;
#178 = PRODUCT_RELATED_PRODUCT_CATEGORY ( 'detail', '', ( #94 ) ) ;
#179 = APPROVAL_DATE_TIME ( #201, #124 ) ;
#180 = DIRECTION ( 'NONE',  ( 3.491481338843133355E-15, -1.224646799147353454E-16, 1.000000000000000000 ) ) ;
#181 = APPROVAL_PERSON_ORGANIZATION ( #212, #124, #111 ) ;
#182 = ADVANCED_FACE ( 'NONE', ( #184, #18 ), #156, .T. ) ;
#183 = PRODUCT_DEFINITION_SHAPE ( 'NONE', 'NONE',  #30 ) ;
#184 = FACE_OUTER_BOUND ( 'NONE', #207, .T. ) ;
#185 = ADVANCED_FACE ( 'NONE', ( #65, #116 ), #150, .T. ) ;
#186 = CC_DESIGN_APPROVAL ( #147, ( #30 ) ) ;
#187 = VERTEX_POINT ( 'NONE', #219 ) ;
#188 = CONICAL_SURFACE ( 'NONE', #93, 3.759999999999998010, 0.7853981633974492782 ) ;
#189 = ORIENTED_EDGE ( 'NONE', *, *, #209, .T. ) ;
#190 = DIRECTION ( 'NONE',  ( 4.275831445896959482E-31, 1.000000000000000000, 1.224646799147353454E-16 ) ) ;
#191 = MECHANICAL_CONTEXT ( 'NONE', #58, 'mechanical' ) ;
#192 = AXIS2_PLACEMENT_3D ( 'NONE', #136, #121, #190 ) ;
#193 = DIRECTION ( 'NONE',  ( 0.0000000000000000000, 1.000000000000000000, 0.0000000000000000000 ) ) ;
#194 = LOCAL_TIME ( 7, 48, 40.00000000000000000, #237 ) ;
#195 = DIRECTION ( 'NONE',  ( 0.0000000000000000000, 0.0000000000000000000, 1.000000000000000000 ) ) ;
#196 = FACE_OUTER_BOUND ( 'NONE', #25, .T. ) ;
#197 = COORDINATED_UNIVERSAL_TIME_OFFSET ( 1, 0, .AHEAD. ) ;
#198 = ORIENTED_EDGE ( 'NONE', *, *, #148, .T. ) ;
#199 = CALENDAR_DATE ( 2021, 3, 12 ) ;
#200 = CC_DESIGN_SECURITY_CLASSIFICATION ( #80, ( #48 ) ) ;
#201 = DATE_AND_TIME ( #34, #194 ) ;
#202 = CARTESIAN_POINT ( 'NONE',  ( 4.085033166446466404E-13, -1.432836755002403758E-14, 117.0000000000000000 ) ) ;
#203 = CARTESIAN_POINT ( 'NONE',  ( -1.607712623657255763E-30, 5.639096782808583073E-32, -4.604671964794046738E-16 ) ) ;
#204 = DIRECTION ( 'NONE',  ( 4.520962310768160089E-31, 1.000000000000000000, 1.272537761133221395E-16 ) ) ;
#205 = APPROVAL_DATE_TIME ( #214, #106 ) ;
#206 = CIRCLE ( 'NONE', #62, 2.999999999999988010 ) ;
#207 = EDGE_LOOP ( 'NONE', ( #90 ) ) ;
#208 = PERSON_AND_ORGANIZATION ( #217, #4 ) ;
#209 = EDGE_CURVE ( 'NONE', #84, #84, #241, .T. ) ;
#210 = ORIENTED_EDGE ( 'NONE', *, *, #167, .F. ) ;
#211 = CYLINDRICAL_SURFACE ( 'NONE', #218, 2.999999999999994671 ) ;
#212 = PERSON_AND_ORGANIZATION ( #217, #4 ) ;
#213 = EDGE_LOOP ( 'NONE', ( #227 ) ) ;
#214 = DATE_AND_TIME ( #143, #129 ) ;
#215 = APPROVAL_ROLE ( '' ) ;
#216 = DIRECTION ( 'NONE',  ( -3.491481338843133355E-15, 1.224646799147353454E-16, -1.000000000000000000 ) ) ;
#217 = PERSON ( 'UNSPECIFIED', 'UNSPECIFIED', 'UNSPECIFIED', ('UNSPECIFIED'), ('UNSPECIFIED'), ('UNSPECIFIED') ) ;
#218 = AXIS2_PLACEMENT_3D ( 'NONE', #155, #176, #225 ) ;
#219 = CARTESIAN_POINT ( 'NONE',  ( 5.586370142149013368E-14, 4.259999999999998010, 16.00000000000000000 ) ) ;
#220 =( GEOMETRIC_REPRESENTATION_CONTEXT ( 3 ) GLOBAL_UNCERTAINTY_ASSIGNED_CONTEXT ( ( #130 ) ) GLOBAL_UNIT_ASSIGNED_CONTEXT ( ( #3, #170, #154 ) ) REPRESENTATION_CONTEXT ( 'NONE', 'WORKASPACE' ) );
#221 = DIRECTION ( 'NONE',  ( -4.275831445896959482E-31, -1.000000000000000000, -1.224646799147353454E-16 ) ) ;
#222 = PLANE ( 'NONE',  #83 ) ;
#223 = CARTESIAN_POINT ( 'NONE',  ( 5.586370142149013368E-14, 4.259999999999998010, 16.00000000000000000 ) ) ;
#224 = DIRECTION ( 'NONE',  ( -4.275831445896959482E-31, -1.000000000000000000, -1.224646799147353454E-16 ) ) ;
#225 = DIRECTION ( 'NONE',  ( 4.275831445896959482E-31, 1.000000000000000000, 1.224646799147353454E-16 ) ) ;
#226 = CARTESIAN_POINT ( 'NONE',  ( 4.064084278413407478E-13, 2.999999999999987566, 116.4000000000000057 ) ) ;
#227 = ORIENTED_EDGE ( 'NONE', *, *, #33, .F. ) ;
#228 = VERTEX_POINT ( 'NONE', #47 ) ;
#229 = EDGE_LOOP ( 'NONE', ( #24 ) ) ;
#230 = APPLICATION_PROTOCOL_DEFINITION ( 'international standard', 'config_control_design', 1994, #58 ) ;
#231 = APPROVAL_STATUS ( 'not_yet_approved' ) ;
#232 = DIRECTION ( 'NONE',  ( 3.491481338843133355E-15, -1.224646799147353454E-16, 1.000000000000000000 ) ) ;
#233 = ADVANCED_BREP_SHAPE_REPRESENTATION ( '342284', ( #128, #44, #17 ), #220 ) ;
#234 = EDGE_LOOP ( 'NONE', ( #9 ) ) ;
#235 = APPROVAL_STATUS ( 'not_yet_approved' ) ;
#236 = ADVANCED_FACE ( 'NONE', ( #168, #43 ), #188, .T. ) ;
#237 = COORDINATED_UNIVERSAL_TIME_OFFSET ( 1, 0, .AHEAD. ) ;
#238 = DIRECTION ( 'NONE',  ( 0.0000000000000000000, 1.000000000000000000, 0.0000000000000000000 ) ) ;
#239 = DIRECTION ( 'NONE',  ( -3.491481338843133355E-15, 1.224646799147353454E-16, -1.000000000000000000 ) ) ;
#240 = AXIS2_PLACEMENT_3D ( 'NONE', #14, #78, #42 ) ;
#241 = CIRCLE ( 'NONE', #32, 3.759999999999998010 ) ;
#242 = CARTESIAN_POINT ( 'NONE',  ( 4.085033166446466404E-13, 2.399999999999987921, 117.0000000000000000 ) ) ;
#243 = CARTESIAN_POINT ( 'NONE',  ( 5.586370142149013368E-14, 3.194488337069755391E-32, 16.00000000000000000 ) ) ;
ENDSEC;
END-ISO-10303-21;
