ISO-10303-21;
HEADER;
FILE_DESCRIPTION (( 'STEP AP203' ),
    '1' );
FILE_NAME ('342283.step',
    '2021-12-03T06:48:39',
    ( '' ),
    ( '' ),
    'SwSTEP 2.0',
    'SolidWorks 2019',
    '' );
FILE_SCHEMA (( 'CONFIG_CONTROL_DESIGN' ));
ENDSEC;

DATA;
#1 = AXIS2_PLACEMENT_3D ( 'NONE', #127, #159, #227 ) ;
#2 = CONICAL_SURFACE ( 'NONE', #1, 3.754999999999998561, 0.7853981633974503884 ) ;
#3 = ORIENTED_EDGE ( 'NONE', *, *, #112, .T. ) ;
#4 = LOCAL_TIME ( 7, 48, 39.00000000000000000, #217 ) ;
#5 = FACE_OUTER_BOUND ( 'NONE', #152, .T. ) ;
#6 = ADVANCED_FACE ( 'NONE', ( #90, #178 ), #171, .T. ) ;
#7 = CARTESIAN_POINT ( 'NONE',  ( 1.745740669421565889E-15, 4.254999999999999893, 0.4999999999999997780 ) ) ;
#8 = ORIENTED_EDGE ( 'NONE', *, *, #132, .T. ) ;
#9 = CARTESIAN_POINT ( 'NONE',  ( 5.586370142149013368E-14, 3.190738937613100993E-32, 16.00000000000000000 ) ) ;
#10 =( NAMED_UNIT ( * ) SI_UNIT ( $, .STERADIAN. ) SOLID_ANGLE_UNIT ( ) );
#11 = APPROVAL_STATUS ( 'not_yet_approved' ) ;
#12 = DIRECTION ( 'NONE',  ( 0.0000000000000000000, 1.000000000000000000, 0.0000000000000000000 ) ) ;
#13 = AXIS2_PLACEMENT_3D ( 'NONE', #184, #101, #164 ) ;
#14 = PERSON_AND_ORGANIZATION ( #66, #143 ) ;
#15 = PRODUCT_DEFINITION_FORMATION_WITH_SPECIFIED_SOURCE ( 'ANY', '', #220, .NOT_KNOWN. ) ;
#16 = APPROVAL_DATE_TIME ( #135, #211 ) ;
#17 = CC_DESIGN_PERSON_AND_ORGANIZATION_ASSIGNMENT ( #98, #85, ( #15 ) ) ;
#18 = APPROVAL_STATUS ( 'not_yet_approved' ) ;
#19 = CARTESIAN_POINT ( 'NONE',  ( 4.085033166446466404E-13, 1.799711739194210245E-32, 117.0000000000000000 ) ) ;
#20 = CARTESIAN_POINT ( 'NONE',  ( 4.085033166446466404E-13, -1.432836755002403758E-14, 117.0000000000000000 ) ) ;
#21 = APPROVAL_PERSON_ORGANIZATION ( #34, #211, #219 ) ;
#22 = ORIENTED_EDGE ( 'NONE', *, *, #175, .T. ) ;
#23 = AXIS2_PLACEMENT_3D ( 'NONE', #131, #145, #194 ) ;
#24 = AXIS2_PLACEMENT_3D ( 'NONE', #31, #115, #97 ) ;
#25 = FACE_OUTER_BOUND ( 'NONE', #108, .T. ) ;
#26 = ADVANCED_FACE ( 'NONE', ( #25 ), #75, .T. ) ;
#27 = APPROVAL_PERSON_ORGANIZATION ( #221, #179, #121 ) ;
#28 = EDGE_LOOP ( 'NONE', ( #113 ) ) ;
#29 = FACE_OUTER_BOUND ( 'NONE', #94, .T. ) ;
#30 = FACE_OUTER_BOUND ( 'NONE', #155, .T. ) ;
#31 = CARTESIAN_POINT ( 'NONE',  ( 0.0000000000000000000, 0.0000000000000000000, 0.0000000000000000000 ) ) ;
#32 = CARTESIAN_POINT ( 'NONE',  ( -1.605574707934307642E-30, 5.631597983895275372E-32, -4.598548730798309862E-16 ) ) ;
#33 = APPROVAL ( #185, 'UNSPECIFIED' ) ;
#34 = PERSON_AND_ORGANIZATION ( #66, #143 ) ;
#35 = COORDINATED_UNIVERSAL_TIME_OFFSET ( 1, 0, .AHEAD. ) ;
#36 = DIRECTION ( 'NONE',  ( -3.491481338843133355E-15, 1.224646799147353454E-16, -1.000000000000000000 ) ) ;
#37 = PERSON_AND_ORGANIZATION ( #66, #143 ) ;
#38 = AXIS2_PLACEMENT_3D ( 'NONE', #68, #137, #239 ) ;
#39 = APPLICATION_PROTOCOL_DEFINITION ( 'international standard', 'config_control_design', 1994, #237 ) ;
#40 = CARTESIAN_POINT ( 'NONE',  ( 6.345321737754660012E-14, -2.225639263555718889E-15, 18.17372376349895546 ) ) ;
#41 = CALENDAR_DATE ( 2021, 3, 12 ) ;
#42 = CC_DESIGN_APPROVAL ( #33, ( #88 ) ) ;
#43 = ADVANCED_FACE ( 'NONE', ( #29, #188 ), #2, .T. ) ;
#44 = PLANE ( 'NONE',  #222 ) ;
#45 = CIRCLE ( 'NONE', #109, 4.254999999999999893 ) ;
#46 = CONICAL_SURFACE ( 'NONE', #129, 2.400000000000002576, 0.7853981633974450594 ) ;
#47 = CC_DESIGN_DATE_AND_TIME_ASSIGNMENT ( #62, #238, ( #88 ) ) ;
#48 = DIRECTION ( 'NONE',  ( -3.491481338843133355E-15, 1.224646799147353454E-16, -1.000000000000000000 ) ) ;
#49 = CC_DESIGN_PERSON_AND_ORGANIZATION_ASSIGNMENT ( #197, #235, ( #205 ) ) ;
#50 = VERTEX_POINT ( 'NONE', #156 ) ;
#51 = EDGE_CURVE ( 'NONE', #230, #230, #60, .T. ) ;
#52 = ORIENTED_EDGE ( 'NONE', *, *, #241, .F. ) ;
#53 = VERTEX_POINT ( 'NONE', #228 ) ;
#54 = AXIS2_PLACEMENT_3D ( 'NONE', #9, #95, #86 ) ;
#55 = CIRCLE ( 'NONE', #38, 3.000000000000001776 ) ;
#56 = ORIENTED_EDGE ( 'NONE', *, *, #154, .F. ) ;
#57 = FACE_OUTER_BOUND ( 'NONE', #133, .T. ) ;
#58 = APPLICATION_PROTOCOL_DEFINITION ( 'international standard', 'config_control_design', 1994, #223 ) ;
#59 = EDGE_LOOP ( 'NONE', ( #229 ) ) ;
#60 = CIRCLE ( 'NONE', #79, 3.754999999999998561 ) ;
#61 = FACE_OUTER_BOUND ( 'NONE', #142, .T. ) ;
#62 = DATE_AND_TIME ( #216, #84 ) ;
#63 = EDGE_CURVE ( 'NONE', #207, #207, #45, .T. ) ;
#64 = SHAPE_DEFINITION_REPRESENTATION ( #202, #187 ) ;
#65 = CALENDAR_DATE ( 2021, 3, 12 ) ;
#66 = PERSON ( 'UNSPECIFIED', 'UNSPECIFIED', 'UNSPECIFIED', ('UNSPECIFIED'), ('UNSPECIFIED'), ('UNSPECIFIED') ) ;
#67 = APPROVAL_PERSON_ORGANIZATION ( #118, #33, #136 ) ;
#68 = CARTESIAN_POINT ( 'NONE',  ( 4.064084278413407478E-13, -1.425488874207519270E-14, 116.4000000000000057 ) ) ;
#69 = LOCAL_TIME ( 7, 48, 39.00000000000000000, #35 ) ;
#70 = ORIENTED_EDGE ( 'NONE', *, *, #154, .T. ) ;
#71 = CC_DESIGN_APPROVAL ( #179, ( #205 ) ) ;
#72 = ORIENTED_EDGE ( 'NONE', *, *, #51, .F. ) ;
#73 = CARTESIAN_POINT ( 'NONE',  ( 0.0000000000000000000, 3.754999999999998561, 0.0000000000000000000 ) ) ;
#74 = CYLINDRICAL_SURFACE ( 'NONE', #23, 4.254999999999999893 ) ;
#75 = PLANE ( 'NONE',  #124 ) ;
#76 = EDGE_LOOP ( 'NONE', ( #52 ) ) ;
#77 = MECHANICAL_CONTEXT ( 'NONE', #223, 'mechanical' ) ;
#78 = COORDINATED_UNIVERSAL_TIME_OFFSET ( 1, 0, .AHEAD. ) ;
#79 = AXIS2_PLACEMENT_3D ( 'NONE', #32, #212, #213 ) ;
#80 = CARTESIAN_POINT ( 'NONE',  ( 4.085033166446466404E-13, -1.432836755002403758E-14, 117.0000000000000000 ) ) ;
#81 = AXIS2_PLACEMENT_3D ( 'NONE', #40, #120, #198 ) ;
#82 = CALENDAR_DATE ( 2021, 3, 12 ) ;
#83 = ADVANCED_FACE ( 'NONE', ( #57, #5 ), #74, .T. ) ;
#84 = LOCAL_TIME ( 7, 48, 39.00000000000000000, #99 ) ;
#85 = PERSON_AND_ORGANIZATION_ROLE ( 'design_supplier' ) ;
#86 = DIRECTION ( 'NONE',  ( -4.275831445896959482E-31, -1.000000000000000000, -1.224646799147353454E-16 ) ) ;
#87 = APPROVAL_DATE_TIME ( #117, #33 ) ;
#88 = PRODUCT_DEFINITION ( 'UNKNOWN', '', #15, #105 ) ;
#89 = ADVANCED_FACE ( 'NONE', ( #114 ), #176, .T. ) ;
#90 = FACE_BOUND ( 'NONE', #210, .T. ) ;
#91 = ORIENTED_EDGE ( 'NONE', *, *, #175, .F. ) ;
#92 = DIRECTION ( 'NONE',  ( -4.275831445896959482E-31, -1.000000000000000000, -1.224646799147353454E-16 ) ) ;
#93 = VERTEX_POINT ( 'NONE', #191 ) ;
#94 = EDGE_LOOP ( 'NONE', ( #70 ) ) ;
#95 = DIRECTION ( 'NONE',  ( 3.491481338843133355E-15, -1.224646799147353454E-16, 1.000000000000000000 ) ) ;
#96 = PLANE ( 'NONE',  #190 ) ;
#97 = DIRECTION ( 'NONE',  ( 1.000000000000000000, 0.0000000000000000000, 0.0000000000000000000 ) ) ;
#98 = PERSON_AND_ORGANIZATION ( #66, #143 ) ;
#99 = COORDINATED_UNIVERSAL_TIME_OFFSET ( 1, 0, .AHEAD. ) ;
#100 = DIRECTION ( 'NONE',  ( 4.526274839922998490E-31, 1.000000000000000000, 1.274033105153354214E-16 ) ) ;
#101 = DIRECTION ( 'NONE',  ( -3.491481338843133355E-15, 1.224646799147353454E-16, -1.000000000000000000 ) ) ;
#102 = CALENDAR_DATE ( 2021, 3, 12 ) ;
#103 = MANIFOLD_SOLID_BREP ( 'Corps-Déplacer/Copier1[2]', #158 ) ;
#104 = PRODUCT_RELATED_PRODUCT_CATEGORY ( 'detail', '', ( #220 ) ) ;
#105 = DESIGN_CONTEXT ( 'detailed design', #237, 'design' ) ;
#106 = FACE_BOUND ( 'NONE', #170, .T. ) ;
#107 = CARTESIAN_POINT ( 'NONE',  ( 5.586370142149013368E-14, -1.959434878635765526E-15, 16.00000000000000000 ) ) ;
#108 = EDGE_LOOP ( 'NONE', ( #196 ) ) ;
#109 = AXIS2_PLACEMENT_3D ( 'NONE', #233, #111, #173 ) ;
#110 = CARTESIAN_POINT ( 'NONE',  ( 1.745740669421564114E-15, -6.123233995736758640E-17, 0.4999999999999992784 ) ) ;
#111 = DIRECTION ( 'NONE',  ( -3.491481338843133355E-15, 1.224646799147353454E-16, -1.000000000000000000 ) ) ;
#112 = EDGE_CURVE ( 'NONE', #53, #53, #181, .T. ) ;
#113 = ORIENTED_EDGE ( 'NONE', *, *, #112, .F. ) ;
#114 = FACE_OUTER_BOUND ( 'NONE', #76, .T. ) ;
#115 = DIRECTION ( 'NONE',  ( 0.0000000000000000000, 0.0000000000000000000, 1.000000000000000000 ) ) ;
#116 = DATE_AND_TIME ( #41, #240 ) ;
#117 = DATE_AND_TIME ( #102, #69 ) ;
#118 = PERSON_AND_ORGANIZATION ( #66, #143 ) ;
#119 = DATE_TIME_ROLE ( 'classification_date' ) ;
#120 = DIRECTION ( 'NONE',  ( -3.491481338843133355E-15, 1.224646799147353454E-16, -1.000000000000000000 ) ) ;
#121 = APPROVAL_ROLE ( '' ) ;
#122 = UNCERTAINTY_MEASURE_WITH_UNIT (LENGTH_MEASURE( 1.000000000000000082E-05 ), #126, 'distance_accuracy_value', 'NONE');
#123 = CC_DESIGN_DATE_AND_TIME_ASSIGNMENT ( #116, #119, ( #205 ) ) ;
#124 = AXIS2_PLACEMENT_3D ( 'NONE', #209, #144, #153 ) ;
#125 = ADVANCED_FACE ( 'NONE', ( #243 ), #44, .F. ) ;
#126 =( LENGTH_UNIT ( ) NAMED_UNIT ( * ) SI_UNIT ( .MILLI., .METRE. ) );
#127 = CARTESIAN_POINT ( 'NONE',  ( -1.605574707934307642E-30, 5.631597983895275372E-32, -4.598548730798309862E-16 ) ) ;
#128 = EDGE_LOOP ( 'NONE', ( #226 ) ) ;
#129 = AXIS2_PLACEMENT_3D ( 'NONE', #20, #224, #225 ) ;
#130 = VERTEX_POINT ( 'NONE', #195 ) ;
#131 = CARTESIAN_POINT ( 'NONE',  ( 0.0000000000000000000, 0.0000000000000000000, 0.0000000000000000000 ) ) ;
#132 = EDGE_CURVE ( 'NONE', #130, #130, #55, .T. ) ;
#133 = EDGE_LOOP ( 'NONE', ( #157 ) ) ;
#134 = EDGE_LOOP ( 'NONE', ( #72 ) ) ;
#135 = DATE_AND_TIME ( #65, #199 ) ;
#136 = APPROVAL_ROLE ( '' ) ;
#137 = DIRECTION ( 'NONE',  ( -3.491481338843133355E-15, 1.224646799147353454E-16, -1.000000000000000000 ) ) ;
#138 = DIRECTION ( 'NONE',  ( -3.491481338843133355E-15, 1.224646799147353454E-16, -1.000000000000000000 ) ) ;
#139 = DIRECTION ( 'NONE',  ( -3.491481338843133355E-15, 1.224646799147353454E-16, -1.000000000000000000 ) ) ;
#140 = CARTESIAN_POINT ( 'NONE',  ( 5.586370142149013368E-14, 4.254999999999998117, 16.00000000000000000 ) ) ;
#141 = ADVANCED_FACE ( 'NONE', ( #206, #106 ), #46, .T. ) ;
#142 = EDGE_LOOP ( 'NONE', ( #8 ) ) ;
#143 = ORGANIZATION ( 'UNSPECIFIED', 'UNSPECIFIED', '' ) ;
#144 = DIRECTION ( 'NONE',  ( -3.491481338843133355E-15, 1.224646799147353454E-16, -1.000000000000000000 ) ) ;
#145 = DIRECTION ( 'NONE',  ( -3.491481338843133355E-15, 1.224646799147353454E-16, -1.000000000000000000 ) ) ;
#146 = SECURITY_CLASSIFICATION_LEVEL ( 'unclassified' ) ;
#147 = PERSON_AND_ORGANIZATION ( #66, #143 ) ;
#148 = CC_DESIGN_PERSON_AND_ORGANIZATION_ASSIGNMENT ( #37, #203, ( #220 ) ) ;
#149 = DIRECTION ( 'NONE',  ( 4.275831445896959482E-31, 1.000000000000000000, 1.224646799147353454E-16 ) ) ;
#150 = CLOSED_SHELL ( 'NONE', ( #200, #6, #163, #141, #125 ) ) ;
#151 = AXIS2_PLACEMENT_3D ( 'NONE', #80, #36, #12 ) ;
#152 = EDGE_LOOP ( 'NONE', ( #56 ) ) ;
#153 = DIRECTION ( 'NONE',  ( 4.275831445896959482E-31, 1.000000000000000000, 1.224646799147353454E-16 ) ) ;
#154 = EDGE_CURVE ( 'NONE', #234, #234, #183, .T. ) ;
#155 = EDGE_LOOP ( 'NONE', ( #192 ) ) ;
#156 = CARTESIAN_POINT ( 'NONE',  ( 5.586370142149013368E-14, 4.254999999999998117, 16.00000000000000000 ) ) ;
#157 = ORIENTED_EDGE ( 'NONE', *, *, #241, .T. ) ;
#158 = CLOSED_SHELL ( 'NONE', ( #83, #89, #26, #43 ) ) ;
#159 = DIRECTION ( 'NONE',  ( 3.491481338843133355E-15, -1.224646799147353454E-16, 1.000000000000000000 ) ) ;
#160 = COORDINATED_UNIVERSAL_TIME_OFFSET ( 1, 0, .AHEAD. ) ;
#161 = AXIS2_PLACEMENT_3D ( 'NONE', #107, #139, #169 ) ;
#162 = PERSON_AND_ORGANIZATION_ROLE ( 'creator' ) ;
#163 = ADVANCED_FACE ( 'NONE', ( #218, #61 ), #167, .T. ) ;
#164 = DIRECTION ( 'NONE',  ( 4.275831445896959482E-31, 1.000000000000000000, 1.224646799147353454E-16 ) ) ;
#165 = PERSON_AND_ORGANIZATION_ROLE ( 'creator' ) ;
#166 = AXIS2_PLACEMENT_3D ( 'NONE', #189, #138, #214 ) ;
#167 = CYLINDRICAL_SURFACE ( 'NONE', #13, 2.999999999999994671 ) ;
#168 = CC_DESIGN_PERSON_AND_ORGANIZATION_ASSIGNMENT ( #14, #162, ( #15 ) ) ;
#169 = DIRECTION ( 'NONE',  ( 0.0000000000000000000, 1.000000000000000000, 0.0000000000000000000 ) ) ;
#170 = EDGE_LOOP ( 'NONE', ( #3 ) ) ;
#171 = CONICAL_SURFACE ( 'NONE', #166, 4.254999999999999893, 0.5235987755983005920 ) ;
#172 = AXIS2_PLACEMENT_3D ( 'NONE', #110, #231, #100 ) ;
#173 = DIRECTION ( 'NONE',  ( 0.0000000000000000000, 1.000000000000000000, 0.0000000000000000000 ) ) ;
#174 = EDGE_LOOP ( 'NONE', ( #91 ) ) ;
#175 = EDGE_CURVE ( 'NONE', #93, #93, #236, .T. ) ;
#176 = PLANE ( 'NONE',  #54 ) ;
#177 = MANIFOLD_SOLID_BREP ( 'Corps-Déplacer/Copier1[1]', #150 ) ;
#178 = FACE_OUTER_BOUND ( 'NONE', #128, .T. ) ;
#179 = APPROVAL ( #11, 'UNSPECIFIED' ) ;
#180 = DIRECTION ( 'NONE',  ( 3.491481338843133355E-15, -1.224646799147353454E-16, 1.000000000000000000 ) ) ;
#181 = CIRCLE ( 'NONE', #151, 2.400000000000002576 ) ;
#182 = APPROVAL_DATE_TIME ( #201, #179 ) ;
#183 = CIRCLE ( 'NONE', #172, 4.254999999999999893 ) ;
#184 = CARTESIAN_POINT ( 'NONE',  ( 0.0000000000000000000, 0.0000000000000000000, 0.0000000000000000000 ) ) ;
#185 = APPROVAL_STATUS ( 'not_yet_approved' ) ;
#186 = CC_DESIGN_PERSON_AND_ORGANIZATION_ASSIGNMENT ( #147, #165, ( #88 ) ) ;
#187 = ADVANCED_BREP_SHAPE_REPRESENTATION ( '342283', ( #177, #103, #24 ), #242 ) ;
#188 = FACE_BOUND ( 'NONE', #134, .T. ) ;
#189 = CARTESIAN_POINT ( 'NONE',  ( 5.586370142149013368E-14, -1.959434878635765526E-15, 16.00000000000000000 ) ) ;
#190 = AXIS2_PLACEMENT_3D ( 'NONE', #215, #180, #92 ) ;
#191 = CARTESIAN_POINT ( 'NONE',  ( 6.345321737754660012E-14, 2.999999999999985789, 18.17372376349895546 ) ) ;
#192 = ORIENTED_EDGE ( 'NONE', *, *, #63, .T. ) ;
#193 =( NAMED_UNIT ( * ) PLANE_ANGLE_UNIT ( ) SI_UNIT ( $, .RADIAN. ) );
#194 = DIRECTION ( 'NONE',  ( 4.275831445896960358E-31, 1.000000000000000000, 1.224646799147353700E-16 ) ) ;
#195 = CARTESIAN_POINT ( 'NONE',  ( 4.064084278413407478E-13, 2.999999999999987566, 116.4000000000000057 ) ) ;
#196 = ORIENTED_EDGE ( 'NONE', *, *, #51, .T. ) ;
#197 = PERSON_AND_ORGANIZATION ( #66, #143 ) ;
#198 = DIRECTION ( 'NONE',  ( 0.0000000000000000000, 1.000000000000000000, 0.0000000000000000000 ) ) ;
#199 = LOCAL_TIME ( 7, 48, 39.00000000000000000, #160 ) ;
#200 = ADVANCED_FACE ( 'NONE', ( #30 ), #96, .F. ) ;
#201 = DATE_AND_TIME ( #82, #4 ) ;
#202 = PRODUCT_DEFINITION_SHAPE ( 'NONE', 'NONE',  #88 ) ;
#203 = PERSON_AND_ORGANIZATION_ROLE ( 'design_owner' ) ;
#204 = CIRCLE ( 'NONE', #161, 4.254999999999999893 ) ;
#205 = SECURITY_CLASSIFICATION ( '', '', #146 ) ;
#206 = FACE_OUTER_BOUND ( 'NONE', #59, .T. ) ;
#207 = VERTEX_POINT ( 'NONE', #140 ) ;
#208 = CC_DESIGN_SECURITY_CLASSIFICATION ( #205, ( #15 ) ) ;
#209 = CARTESIAN_POINT ( 'NONE',  ( -8.027873539671538212E-31, 2.815798991947637686E-32, -2.299274365399154931E-16 ) ) ;
#210 = EDGE_LOOP ( 'NONE', ( #22 ) ) ;
#211 = APPROVAL ( #18, 'UNSPECIFIED' ) ;
#212 = DIRECTION ( 'NONE',  ( -3.491481338843133355E-15, 1.224646799147353454E-16, -1.000000000000000000 ) ) ;
#213 = DIRECTION ( 'NONE',  ( 4.275831445896959482E-31, 1.000000000000000000, 1.224646799147353207E-16 ) ) ;
#214 = DIRECTION ( 'NONE',  ( 0.0000000000000000000, 1.000000000000000000, 0.0000000000000000000 ) ) ;
#215 = CARTESIAN_POINT ( 'NONE',  ( 5.586370142149013368E-14, 3.190738937613100993E-32, 16.00000000000000000 ) ) ;
#216 = CALENDAR_DATE ( 2021, 3, 12 ) ;
#217 = COORDINATED_UNIVERSAL_TIME_OFFSET ( 1, 0, .AHEAD. ) ;
#218 = FACE_OUTER_BOUND ( 'NONE', #174, .T. ) ;
#219 = APPROVAL_ROLE ( '' ) ;
#220 = PRODUCT ( '342283', '342283', '', ( #77 ) ) ;
#221 = PERSON_AND_ORGANIZATION ( #66, #143 ) ;
#222 = AXIS2_PLACEMENT_3D ( 'NONE', #19, #48, #149 ) ;
#223 = APPLICATION_CONTEXT ( 'configuration controlled 3d designs of mechanical parts and assemblies' ) ;
#224 = DIRECTION ( 'NONE',  ( -3.491481338843133355E-15, 1.224646799147353454E-16, -1.000000000000000000 ) ) ;
#225 = DIRECTION ( 'NONE',  ( 0.0000000000000000000, 1.000000000000000000, 0.0000000000000000000 ) ) ;
#226 = ORIENTED_EDGE ( 'NONE', *, *, #63, .F. ) ;
#227 = DIRECTION ( 'NONE',  ( -4.275831445896959482E-31, -1.000000000000000000, -1.224646799147353207E-16 ) ) ;
#228 = CARTESIAN_POINT ( 'NONE',  ( 4.085033166446466404E-13, 2.399999999999987921, 117.0000000000000000 ) ) ;
#229 = ORIENTED_EDGE ( 'NONE', *, *, #132, .F. ) ;
#230 = VERTEX_POINT ( 'NONE', #73 ) ;
#231 = DIRECTION ( 'NONE',  ( -3.491481338843133355E-15, 1.224646799147353454E-16, -1.000000000000000000 ) ) ;
#232 = CC_DESIGN_APPROVAL ( #211, ( #15 ) ) ;
#233 = CARTESIAN_POINT ( 'NONE',  ( 5.586370142149013368E-14, -1.959434878635765526E-15, 16.00000000000000000 ) ) ;
#234 = VERTEX_POINT ( 'NONE', #7 ) ;
#235 = PERSON_AND_ORGANIZATION_ROLE ( 'classification_officer' ) ;
#236 = CIRCLE ( 'NONE', #81, 2.999999999999988010 ) ;
#237 = APPLICATION_CONTEXT ( 'configuration controlled 3d designs of mechanical parts and assemblies' ) ;
#238 = DATE_TIME_ROLE ( 'creation_date' ) ;
#239 = DIRECTION ( 'NONE',  ( 0.0000000000000000000, 1.000000000000000000, 0.0000000000000000000 ) ) ;
#240 = LOCAL_TIME ( 7, 48, 39.00000000000000000, #78 ) ;
#241 = EDGE_CURVE ( 'NONE', #50, #50, #204, .T. ) ;
#242 =( GEOMETRIC_REPRESENTATION_CONTEXT ( 3 ) GLOBAL_UNCERTAINTY_ASSIGNED_CONTEXT ( ( #122 ) ) GLOBAL_UNIT_ASSIGNED_CONTEXT ( ( #126, #193, #10 ) ) REPRESENTATION_CONTEXT ( 'NONE', 'WORKASPACE' ) );
#243 = FACE_OUTER_BOUND ( 'NONE', #28, .T. ) ;
ENDSEC;
END-ISO-10303-21;
