ISO-10303-21;
HEADER;
FILE_DESCRIPTION (( 'STEP AP203' ),
    '1' );
FILE_NAME ('342282.step',
    '2021-12-03T06:48:39',
    ( '' ),
    ( '' ),
    'SwSTEP 2.0',
    'SolidWorks 2019',
    '' );
FILE_SCHEMA (( 'CONFIG_CONTROL_DESIGN' ));
ENDSEC;

DATA;
#1 = ADVANCED_FACE ( 'NONE', ( #213 ), #21, .T. ) ;
#2 = AXIS2_PLACEMENT_3D ( 'NONE', #234, #149, #12 ) ;
#3 = APPROVAL_PERSON_ORGANIZATION ( #153, #167, #152 ) ;
#4 = APPLICATION_CONTEXT ( 'configuration controlled 3d designs of mechanical parts and assemblies' ) ;
#5 = FACE_OUTER_BOUND ( 'NONE', #23, .T. ) ;
#6 = DIRECTION ( 'NONE',  ( 0.0000000000000000000, 1.000000000000000000, 0.0000000000000000000 ) ) ;
#7 = ORGANIZATION ( 'UNSPECIFIED', 'UNSPECIFIED', '' ) ;
#8 = DIRECTION ( 'NONE',  ( -3.491481338843133355E-15, 1.224646799147353454E-16, -1.000000000000000000 ) ) ;
#9 = DIRECTION ( 'NONE',  ( 0.0000000000000000000, 1.000000000000000000, 0.0000000000000000000 ) ) ;
#10 = DIRECTION ( 'NONE',  ( 0.0000000000000000000, 1.000000000000000000, 0.0000000000000000000 ) ) ;
#11 = PRODUCT_DEFINITION_FORMATION_WITH_SPECIFIED_SOURCE ( 'ANY', '', #146, .NOT_KNOWN. ) ;
#12 = DIRECTION ( 'NONE',  ( 4.275831445896959482E-31, 1.000000000000000000, 1.224646799147353454E-16 ) ) ;
#13 = CC_DESIGN_PERSON_AND_ORGANIZATION_ASSIGNMENT ( #203, #206, ( #146 ) ) ;
#14 = COORDINATED_UNIVERSAL_TIME_OFFSET ( 1, 0, .AHEAD. ) ;
#15 = DATE_AND_TIME ( #242, #91 ) ;
#16 = FACE_BOUND ( 'NONE', #157, .T. ) ;
#17 = MECHANICAL_CONTEXT ( 'NONE', #87, 'mechanical' ) ;
#18 = EDGE_CURVE ( 'NONE', #196, #196, #180, .T. ) ;
#19 = ORIENTED_EDGE ( 'NONE', *, *, #18, .F. ) ;
#20 = LOCAL_TIME ( 7, 48, 39.00000000000000000, #204 ) ;
#21 = PLANE ( 'NONE',  #84 ) ;
#22 = DIRECTION ( 'NONE',  ( 3.491481338843133355E-15, -1.224646799147353454E-16, 1.000000000000000000 ) ) ;
#23 = EDGE_LOOP ( 'NONE', ( #66 ) ) ;
#24 = VERTEX_POINT ( 'NONE', #238 ) ;
#25 = CLOSED_SHELL ( 'NONE', ( #36, #1, #32, #77 ) ) ;
#26 = EDGE_CURVE ( 'NONE', #30, #30, #80, .T. ) ;
#27 = CC_DESIGN_DATE_AND_TIME_ASSIGNMENT ( #15, #201, ( #43 ) ) ;
#28 = CYLINDRICAL_SURFACE ( 'NONE', #156, 2.999999999999994671 ) ;
#29 = CARTESIAN_POINT ( 'NONE',  ( 4.064084278413407478E-13, 2.999999999999987566, 116.4000000000000057 ) ) ;
#30 = VERTEX_POINT ( 'NONE', #55 ) ;
#31 = CARTESIAN_POINT ( 'NONE',  ( 1.745740669421564114E-15, -6.123233995736758640E-17, 0.4999999999999992784 ) ) ;
#32 = ADVANCED_FACE ( 'NONE', ( #192 ), #88, .T. ) ;
#33 = PERSON_AND_ORGANIZATION ( #95, #7 ) ;
#34 = APPROVAL_STATUS ( 'not_yet_approved' ) ;
#35 = CC_DESIGN_APPROVAL ( #167, ( #43 ) ) ;
#36 = ADVANCED_FACE ( 'NONE', ( #85, #141 ), #158, .T. ) ;
#37 = COORDINATED_UNIVERSAL_TIME_OFFSET ( 1, 0, .AHEAD. ) ;
#38 = EDGE_LOOP ( 'NONE', ( #19 ) ) ;
#39 = APPROVAL_ROLE ( '' ) ;
#40 = EDGE_LOOP ( 'NONE', ( #81 ) ) ;
#41 = EDGE_LOOP ( 'NONE', ( #102 ) ) ;
#42 = LOCAL_TIME ( 7, 48, 39.00000000000000000, #14 ) ;
#43 = PRODUCT_DEFINITION ( 'UNKNOWN', '', #11, #70 ) ;
#44 = APPROVAL ( #63, 'UNSPECIFIED' ) ;
#45 = DIRECTION ( 'NONE',  ( 4.275831445896959482E-31, 1.000000000000000000, 1.224646799147353454E-16 ) ) ;
#46 = CONICAL_SURFACE ( 'NONE', #229, 3.749999999999998668, 0.7853981633974495002 ) ;
#47 = UNCERTAINTY_MEASURE_WITH_UNIT (LENGTH_MEASURE( 1.000000000000000082E-05 ), #52, 'distance_accuracy_value', 'NONE');
#48 = CARTESIAN_POINT ( 'NONE',  ( 5.586370142149013368E-14, 3.186989538156446596E-32, 16.00000000000000000 ) ) ;
#49 = ORIENTED_EDGE ( 'NONE', *, *, #62, .F. ) ;
#50 = CARTESIAN_POINT ( 'NONE',  ( 6.342298026218381877E-14, -2.224578688316994239E-15, 18.16506350946110970 ) ) ;
#51 = DIRECTION ( 'NONE',  ( -4.275831445896959482E-31, -1.000000000000000000, -1.224646799147353454E-16 ) ) ;
#52 =( LENGTH_UNIT ( ) NAMED_UNIT ( * ) SI_UNIT ( .MILLI., .METRE. ) );
#53 = CC_DESIGN_PERSON_AND_ORGANIZATION_ASSIGNMENT ( #33, #169, ( #100 ) ) ;
#54 = CARTESIAN_POINT ( 'NONE',  ( -1.603436792211359521E-30, 5.624099184981966577E-32, -4.592425496802573972E-16 ) ) ;
#55 = CARTESIAN_POINT ( 'NONE',  ( 5.586370142149013368E-14, 4.249999999999998224, 16.00000000000000000 ) ) ;
#56 = CARTESIAN_POINT ( 'NONE',  ( 5.586370142149013368E-14, -1.959434878635765526E-15, 16.00000000000000000 ) ) ;
#57 = AXIS2_PLACEMENT_3D ( 'NONE', #86, #71, #143 ) ;
#58 = COORDINATED_UNIVERSAL_TIME_OFFSET ( 1, 0, .AHEAD. ) ;
#59 = ADVANCED_FACE ( 'NONE', ( #215, #5 ), #28, .T. ) ;
#60 = DATE_AND_TIME ( #222, #116 ) ;
#61 = ORIENTED_EDGE ( 'NONE', *, *, #202, .F. ) ;
#62 = EDGE_CURVE ( 'NONE', #115, #115, #163, .T. ) ;
#63 = APPROVAL_STATUS ( 'not_yet_approved' ) ;
#64 = ORIENTED_EDGE ( 'NONE', *, *, #26, .T. ) ;
#65 = ORIENTED_EDGE ( 'NONE', *, *, #211, .T. ) ;
#66 = ORIENTED_EDGE ( 'NONE', *, *, #18, .T. ) ;
#67 = CONICAL_SURFACE ( 'NONE', #125, 4.250000000000000000, 0.5235987755983003700 ) ;
#68 = FACE_OUTER_BOUND ( 'NONE', #41, .T. ) ;
#69 = DIRECTION ( 'NONE',  ( -3.491481338843133355E-15, 1.224646799147353454E-16, -1.000000000000000000 ) ) ;
#70 = DESIGN_CONTEXT ( 'detailed design', #4, 'design' ) ;
#71 = DIRECTION ( 'NONE',  ( -3.491481338843133355E-15, 1.224646799147353454E-16, -1.000000000000000000 ) ) ;
#72 = DIRECTION ( 'NONE',  ( 4.531599869146438280E-31, 1.000000000000000000, 1.275531967630005492E-16 ) ) ;
#73 = FACE_BOUND ( 'NONE', #226, .T. ) ;
#74 = VERTEX_POINT ( 'NONE', #112 ) ;
#75 = FACE_OUTER_BOUND ( 'NONE', #171, .T. ) ;
#76 = APPROVAL_ROLE ( '' ) ;
#77 = ADVANCED_FACE ( 'NONE', ( #140, #73 ), #46, .T. ) ;
#78 = PERSON_AND_ORGANIZATION ( #95, #7 ) ;
#79 = APPROVAL_DATE_TIME ( #224, #44 ) ;
#80 = CIRCLE ( 'NONE', #110, 4.250000000000000000 ) ;
#81 = ORIENTED_EDGE ( 'NONE', *, *, #184, .F. ) ;
#82 = EDGE_LOOP ( 'NONE', ( #139 ) ) ;
#83 = ADVANCED_BREP_SHAPE_REPRESENTATION ( '342282', ( #183, #113, #235 ), #123 ) ;
#84 = AXIS2_PLACEMENT_3D ( 'NONE', #48, #22, #126 ) ;
#85 = FACE_OUTER_BOUND ( 'NONE', #193, .T. ) ;
#86 = CARTESIAN_POINT ( 'NONE',  ( 4.085033166446466404E-13, -1.432836755002403758E-14, 117.0000000000000000 ) ) ;
#87 = APPLICATION_CONTEXT ( 'configuration controlled 3d designs of mechanical parts and assemblies' ) ;
#88 = PLANE ( 'NONE',  #89 ) ;
#89 = AXIS2_PLACEMENT_3D ( 'NONE', #230, #69, #45 ) ;
#90 = CARTESIAN_POINT ( 'NONE',  ( 5.586370142149013368E-14, 3.186989538156446596E-32, 16.00000000000000000 ) ) ;
#91 = LOCAL_TIME ( 7, 48, 39.00000000000000000, #37 ) ;
#92 = APPLICATION_PROTOCOL_DEFINITION ( 'international standard', 'config_control_design', 1994, #87 ) ;
#93 = DIRECTION ( 'NONE',  ( -3.491481338843133355E-15, 1.224646799147353454E-16, -1.000000000000000000 ) ) ;
#94 = DIRECTION ( 'NONE',  ( 0.0000000000000000000, 1.000000000000000000, 0.0000000000000000000 ) ) ;
#95 = PERSON ( 'UNSPECIFIED', 'UNSPECIFIED', 'UNSPECIFIED', ('UNSPECIFIED'), ('UNSPECIFIED'), ('UNSPECIFIED') ) ;
#96 = ADVANCED_FACE ( 'NONE', ( #68 ), #147, .F. ) ;
#97 = APPROVAL_DATE_TIME ( #118, #167 ) ;
#98 = APPLICATION_PROTOCOL_DEFINITION ( 'international standard', 'config_control_design', 1994, #4 ) ;
#99 = CC_DESIGN_PERSON_AND_ORGANIZATION_ASSIGNMENT ( #243, #221, ( #11 ) ) ;
#100 = SECURITY_CLASSIFICATION ( '', '', #187 ) ;
#101 = DATE_TIME_ROLE ( 'classification_date' ) ;
#102 = ORIENTED_EDGE ( 'NONE', *, *, #104, .F. ) ;
#103 = ORIENTED_EDGE ( 'NONE', *, *, #211, .F. ) ;
#104 = EDGE_CURVE ( 'NONE', #74, #74, #138, .T. ) ;
#105 = CIRCLE ( 'NONE', #209, 4.249999999999999112 ) ;
#106 = PRODUCT_RELATED_PRODUCT_CATEGORY ( 'detail', '', ( #146 ) ) ;
#107 = CARTESIAN_POINT ( 'NONE',  ( 4.085033166446466404E-13, 1.799711739194210245E-32, 117.0000000000000000 ) ) ;
#108 = CARTESIAN_POINT ( 'NONE',  ( 4.064084278413407478E-13, -1.425488874207519270E-14, 116.4000000000000057 ) ) ;
#109 = CARTESIAN_POINT ( 'NONE',  ( 5.586370142149013368E-14, -1.959434878635765526E-15, 16.00000000000000000 ) ) ;
#110 = AXIS2_PLACEMENT_3D ( 'NONE', #109, #210, #6 ) ;
#111 = DIRECTION ( 'NONE',  ( -3.491481338843133355E-15, 1.224646799147353454E-16, -1.000000000000000000 ) ) ;
#112 = CARTESIAN_POINT ( 'NONE',  ( 4.085033166446466404E-13, 2.399999999999987921, 117.0000000000000000 ) ) ;
#113 = MANIFOLD_SOLID_BREP ( 'Corps-Déplacer/Copier1[2]', #25 ) ;
#114 =( NAMED_UNIT ( * ) SI_UNIT ( $, .STERADIAN. ) SOLID_ANGLE_UNIT ( ) );
#115 = VERTEX_POINT ( 'NONE', #161 ) ;
#116 = LOCAL_TIME ( 7, 48, 39.00000000000000000, #165 ) ;
#117 = DIRECTION ( 'NONE',  ( -3.491481338843133355E-15, 1.224646799147353454E-16, -1.000000000000000000 ) ) ;
#118 = DATE_AND_TIME ( #120, #145 ) ;
#119 = CC_DESIGN_PERSON_AND_ORGANIZATION_ASSIGNMENT ( #162, #182, ( #43 ) ) ;
#120 = CALENDAR_DATE ( 2021, 3, 12 ) ;
#121 = APPROVAL_STATUS ( 'not_yet_approved' ) ;
#122 = CALENDAR_DATE ( 2021, 3, 12 ) ;
#123 =( GEOMETRIC_REPRESENTATION_CONTEXT ( 3 ) GLOBAL_UNCERTAINTY_ASSIGNED_CONTEXT ( ( #47 ) ) GLOBAL_UNIT_ASSIGNED_CONTEXT ( ( #52, #130, #114 ) ) REPRESENTATION_CONTEXT ( 'NONE', 'WORKASPACE' ) );
#124 = EDGE_LOOP ( 'NONE', ( #170 ) ) ;
#125 = AXIS2_PLACEMENT_3D ( 'NONE', #56, #117, #94 ) ;
#126 = DIRECTION ( 'NONE',  ( -4.275831445896959482E-31, -1.000000000000000000, -1.224646799147353454E-16 ) ) ;
#127 = DIRECTION ( 'NONE',  ( 0.0000000000000000000, 1.000000000000000000, 0.0000000000000000000 ) ) ;
#128 = CARTESIAN_POINT ( 'NONE',  ( 5.586370142149013368E-14, -1.959434878635765526E-15, 16.00000000000000000 ) ) ;
#129 = AXIS2_PLACEMENT_3D ( 'NONE', #195, #8, #142 ) ;
#130 =( NAMED_UNIT ( * ) PLANE_ANGLE_UNIT ( ) SI_UNIT ( $, .RADIAN. ) );
#131 = CARTESIAN_POINT ( 'NONE',  ( 0.0000000000000000000, 0.0000000000000000000, 0.0000000000000000000 ) ) ;
#132 = PERSON_AND_ORGANIZATION ( #95, #7 ) ;
#133 = APPROVAL_DATE_TIME ( #60, #177 ) ;
#134 = APPROVAL_PERSON_ORGANIZATION ( #207, #44, #39 ) ;
#135 = DATE_AND_TIME ( #122, #42 ) ;
#136 = CC_DESIGN_APPROVAL ( #177, ( #11 ) ) ;
#137 = EDGE_LOOP ( 'NONE', ( #103 ) ) ;
#138 = CIRCLE ( 'NONE', #57, 2.400000000000002576 ) ;
#139 = ORIENTED_EDGE ( 'NONE', *, *, #62, .T. ) ;
#140 = FACE_OUTER_BOUND ( 'NONE', #155, .T. ) ;
#141 = FACE_OUTER_BOUND ( 'NONE', #137, .T. ) ;
#142 = DIRECTION ( 'NONE',  ( 4.275831445896959482E-31, 1.000000000000000000, 1.224646799147353454E-16 ) ) ;
#143 = DIRECTION ( 'NONE',  ( 0.0000000000000000000, 1.000000000000000000, 0.0000000000000000000 ) ) ;
#144 = DIRECTION ( 'NONE',  ( 3.491481338843133355E-15, -1.224646799147353454E-16, 1.000000000000000000 ) ) ;
#145 = LOCAL_TIME ( 7, 48, 39.00000000000000000, #58 ) ;
#146 = PRODUCT ( '342282', '342282', '', ( #17 ) ) ;
#147 = PLANE ( 'NONE',  #218 ) ;
#148 = PRODUCT_DEFINITION_SHAPE ( 'NONE', 'NONE',  #43 ) ;
#149 = DIRECTION ( 'NONE',  ( -3.491481338843133355E-15, 1.224646799147353454E-16, -1.000000000000000000 ) ) ;
#150 = DIRECTION ( 'NONE',  ( -3.491481338843133355E-15, 1.224646799147353454E-16, -1.000000000000000000 ) ) ;
#151 = CC_DESIGN_DATE_AND_TIME_ASSIGNMENT ( #135, #101, ( #100 ) ) ;
#152 = APPROVAL_ROLE ( '' ) ;
#153 = PERSON_AND_ORGANIZATION ( #95, #7 ) ;
#154 = CLOSED_SHELL ( 'NONE', ( #231, #220, #59, #166, #96 ) ) ;
#155 = EDGE_LOOP ( 'NONE', ( #65 ) ) ;
#156 = AXIS2_PLACEMENT_3D ( 'NONE', #214, #232, #228 ) ;
#157 = EDGE_LOOP ( 'NONE', ( #225 ) ) ;
#158 = CYLINDRICAL_SURFACE ( 'NONE', #129, 4.250000000000000000 ) ;
#159 = VERTEX_POINT ( 'NONE', #179 ) ;
#160 = AXIS2_PLACEMENT_3D ( 'NONE', #198, #93, #239 ) ;
#161 = CARTESIAN_POINT ( 'NONE',  ( 6.342298026218381877E-14, 2.999999999999985789, 18.16506350946110970 ) ) ;
#162 = PERSON_AND_ORGANIZATION ( #95, #7 ) ;
#163 = CIRCLE ( 'NONE', #172, 2.999999999999988010 ) ;
#164 = SHAPE_DEFINITION_REPRESENTATION ( #148, #83 ) ;
#165 = COORDINATED_UNIVERSAL_TIME_OFFSET ( 1, 0, .AHEAD. ) ;
#166 = ADVANCED_FACE ( 'NONE', ( #186, #16 ), #205, .T. ) ;
#167 = APPROVAL ( #34, 'UNSPECIFIED' ) ;
#168 = AXIS2_PLACEMENT_3D ( 'NONE', #90, #144, #51 ) ;
#169 = PERSON_AND_ORGANIZATION_ROLE ( 'classification_officer' ) ;
#170 = ORIENTED_EDGE ( 'NONE', *, *, #202, .T. ) ;
#171 = EDGE_LOOP ( 'NONE', ( #191 ) ) ;
#172 = AXIS2_PLACEMENT_3D ( 'NONE', #50, #111, #9 ) ;
#173 = DIRECTION ( 'NONE',  ( 4.275831445896959482E-31, 1.000000000000000000, 1.224646799147353454E-16 ) ) ;
#174 = DIRECTION ( 'NONE',  ( -3.491481338843133355E-15, 1.224646799147353454E-16, -1.000000000000000000 ) ) ;
#175 = CC_DESIGN_SECURITY_CLASSIFICATION ( #100, ( #11 ) ) ;
#176 = DIRECTION ( 'NONE',  ( -3.491481338843133355E-15, 1.224646799147353454E-16, -1.000000000000000000 ) ) ;
#177 = APPROVAL ( #121, 'UNSPECIFIED' ) ;
#178 = FACE_OUTER_BOUND ( 'NONE', #40, .T. ) ;
#179 = CARTESIAN_POINT ( 'NONE',  ( 5.586370142149013368E-14, 4.249999999999998224, 16.00000000000000000 ) ) ;
#180 = CIRCLE ( 'NONE', #216, 3.000000000000001776 ) ;
#181 = VERTEX_POINT ( 'NONE', #240 ) ;
#182 = PERSON_AND_ORGANIZATION_ROLE ( 'creator' ) ;
#183 = MANIFOLD_SOLID_BREP ( 'Corps-Déplacer/Copier1[1]', #154 ) ;
#184 = EDGE_CURVE ( 'NONE', #159, #159, #223, .T. ) ;
#185 = DIRECTION ( 'NONE',  ( 1.000000000000000000, 0.0000000000000000000, 0.0000000000000000000 ) ) ;
#186 = FACE_OUTER_BOUND ( 'NONE', #38, .T. ) ;
#187 = SECURITY_CLASSIFICATION_LEVEL ( 'unclassified' ) ;
#188 = CC_DESIGN_PERSON_AND_ORGANIZATION_ASSIGNMENT ( #78, #219, ( #11 ) ) ;
#189 = CALENDAR_DATE ( 2021, 3, 12 ) ;
#190 = CC_DESIGN_APPROVAL ( #44, ( #100 ) ) ;
#191 = ORIENTED_EDGE ( 'NONE', *, *, #184, .T. ) ;
#192 = FACE_OUTER_BOUND ( 'NONE', #124, .T. ) ;
#193 = EDGE_LOOP ( 'NONE', ( #64 ) ) ;
#194 = EDGE_LOOP ( 'NONE', ( #49 ) ) ;
#195 = CARTESIAN_POINT ( 'NONE',  ( 0.0000000000000000000, 0.0000000000000000000, 0.0000000000000000000 ) ) ;
#196 = VERTEX_POINT ( 'NONE', #29 ) ;
#197 = DIRECTION ( 'NONE',  ( -4.275831445896958607E-31, -1.000000000000000000, -1.224646799147353454E-16 ) ) ;
#198 = CARTESIAN_POINT ( 'NONE',  ( 4.085033166446466404E-13, -1.432836755002403758E-14, 117.0000000000000000 ) ) ;
#199 = CIRCLE ( 'NONE', #2, 3.749999999999998668 ) ;
#200 = DIRECTION ( 'NONE',  ( 0.0000000000000000000, 0.0000000000000000000, 1.000000000000000000 ) ) ;
#201 = DATE_TIME_ROLE ( 'creation_date' ) ;
#202 = EDGE_CURVE ( 'NONE', #181, #181, #199, .T. ) ;
#203 = PERSON_AND_ORGANIZATION ( #95, #7 ) ;
#204 = COORDINATED_UNIVERSAL_TIME_OFFSET ( 1, 0, .AHEAD. ) ;
#205 = CONICAL_SURFACE ( 'NONE', #160, 2.400000000000002576, 0.7853981633974450594 ) ;
#206 = PERSON_AND_ORGANIZATION_ROLE ( 'design_owner' ) ;
#207 = PERSON_AND_ORGANIZATION ( #95, #7 ) ;
#208 = EDGE_LOOP ( 'NONE', ( #227 ) ) ;
#209 = AXIS2_PLACEMENT_3D ( 'NONE', #31, #217, #72 ) ;
#210 = DIRECTION ( 'NONE',  ( -3.491481338843133355E-15, 1.224646799147353454E-16, -1.000000000000000000 ) ) ;
#211 = EDGE_CURVE ( 'NONE', #24, #24, #105, .T. ) ;
#212 = APPROVAL_PERSON_ORGANIZATION ( #132, #177, #76 ) ;
#213 = FACE_OUTER_BOUND ( 'NONE', #208, .T. ) ;
#214 = CARTESIAN_POINT ( 'NONE',  ( 0.0000000000000000000, 0.0000000000000000000, 0.0000000000000000000 ) ) ;
#215 = FACE_OUTER_BOUND ( 'NONE', #194, .T. ) ;
#216 = AXIS2_PLACEMENT_3D ( 'NONE', #108, #174, #127 ) ;
#217 = DIRECTION ( 'NONE',  ( -3.491481338843133355E-15, 1.224646799147353454E-16, -1.000000000000000000 ) ) ;
#218 = AXIS2_PLACEMENT_3D ( 'NONE', #107, #176, #173 ) ;
#219 = PERSON_AND_ORGANIZATION_ROLE ( 'design_supplier' ) ;
#220 = ADVANCED_FACE ( 'NONE', ( #237, #178 ), #67, .T. ) ;
#221 = PERSON_AND_ORGANIZATION_ROLE ( 'creator' ) ;
#222 = CALENDAR_DATE ( 2021, 3, 12 ) ;
#223 = CIRCLE ( 'NONE', #241, 4.250000000000000000 ) ;
#224 = DATE_AND_TIME ( #189, #20 ) ;
#225 = ORIENTED_EDGE ( 'NONE', *, *, #104, .T. ) ;
#226 = EDGE_LOOP ( 'NONE', ( #61 ) ) ;
#227 = ORIENTED_EDGE ( 'NONE', *, *, #26, .F. ) ;
#228 = DIRECTION ( 'NONE',  ( 4.275831445896959482E-31, 1.000000000000000000, 1.224646799147353454E-16 ) ) ;
#229 = AXIS2_PLACEMENT_3D ( 'NONE', #54, #236, #197 ) ;
#230 = CARTESIAN_POINT ( 'NONE',  ( -8.017183961056797606E-31, 2.812049592490983288E-32, -2.296212748401286986E-16 ) ) ;
#231 = ADVANCED_FACE ( 'NONE', ( #75 ), #233, .F. ) ;
#232 = DIRECTION ( 'NONE',  ( -3.491481338843133355E-15, 1.224646799147353454E-16, -1.000000000000000000 ) ) ;
#233 = PLANE ( 'NONE',  #168 ) ;
#234 = CARTESIAN_POINT ( 'NONE',  ( -1.603436792211359521E-30, 5.624099184981966577E-32, -4.592425496802573972E-16 ) ) ;
#235 = AXIS2_PLACEMENT_3D ( 'NONE', #131, #200, #185 ) ;
#236 = DIRECTION ( 'NONE',  ( 3.491481338843133355E-15, -1.224646799147353454E-16, 1.000000000000000000 ) ) ;
#237 = FACE_BOUND ( 'NONE', #82, .T. ) ;
#238 = CARTESIAN_POINT ( 'NONE',  ( 1.745740669421565889E-15, 4.249999999999999112, 0.4999999999999997780 ) ) ;
#239 = DIRECTION ( 'NONE',  ( 0.0000000000000000000, 1.000000000000000000, 0.0000000000000000000 ) ) ;
#240 = CARTESIAN_POINT ( 'NONE',  ( -3.421138828918010427E-46, 3.749999999999998668, 0.0000000000000000000 ) ) ;
#241 = AXIS2_PLACEMENT_3D ( 'NONE', #128, #150, #10 ) ;
#242 = CALENDAR_DATE ( 2021, 3, 12 ) ;
#243 = PERSON_AND_ORGANIZATION ( #95, #7 ) ;
ENDSEC;
END-ISO-10303-21;
