ISO-10303-21;
HEADER;
FILE_DESCRIPTION (( 'STEP AP203' ),
    '1' );
FILE_NAME ('342272.step',
    '2021-12-03T06:48:38',
    ( '' ),
    ( '' ),
    'SwSTEP 2.0',
    'SolidWorks 2019',
    '' );
FILE_SCHEMA (( 'CONFIG_CONTROL_DESIGN' ));
ENDSEC;

DATA;
#1 = CC_DESIGN_PERSON_AND_ORGANIZATION_ASSIGNMENT ( #147, #209, ( #64 ) ) ;
#2 = CLOSED_SHELL ( 'NONE', ( #37, #234, #199, #130, #178 ) ) ;
#3 = CONICAL_SURFACE ( 'NONE', #121, 4.200000000000000178, 0.5235987755983000369 ) ;
#4 = ORIENTED_EDGE ( 'NONE', *, *, #79, .F. ) ;
#5 = EDGE_CURVE ( 'NONE', #181, #181, #46, .T. ) ;
#6 = EDGE_LOOP ( 'NONE', ( #52 ) ) ;
#7 = DIRECTION ( 'NONE',  ( 0.0000000000000000000, 0.0000000000000000000, 1.000000000000000000 ) ) ;
#8 = VERTEX_POINT ( 'NONE', #122 ) ;
#9 = APPROVAL_ROLE ( '' ) ;
#10 = DIRECTION ( 'NONE',  ( -3.491481338843133355E-15, 1.224646799147353454E-16, -1.000000000000000000 ) ) ;
#11 = PERSON_AND_ORGANIZATION ( #99, #156 ) ;
#12 = APPROVAL ( #127, 'UNSPECIFIED' ) ;
#13 = CARTESIAN_POINT ( 'NONE',  ( 4.064084278413407478E-13, 2.999999999999987566, 116.4000000000000057 ) ) ;
#14 = DIRECTION ( 'NONE',  ( -3.491481338843133355E-15, 1.224646799147353454E-16, -1.000000000000000000 ) ) ;
#15 = DIRECTION ( 'NONE',  ( -3.491481338843133355E-15, 1.224646799147353454E-16, -1.000000000000000000 ) ) ;
#16 = APPROVAL_ROLE ( '' ) ;
#17 = PLANE ( 'NONE',  #112 ) ;
#18 = PLANE ( 'NONE',  #39 ) ;
#19 = CYLINDRICAL_SURFACE ( 'NONE', #71, 2.999999999999994671 ) ;
#20 = EDGE_CURVE ( 'NONE', #237, #237, #189, .T. ) ;
#21 = DIRECTION ( 'NONE',  ( 0.0000000000000000000, 1.000000000000000000, 0.0000000000000000000 ) ) ;
#22 = DATE_AND_TIME ( #152, #54 ) ;
#23 = ORIENTED_EDGE ( 'NONE', *, *, #220, .F. ) ;
#24 = APPLICATION_PROTOCOL_DEFINITION ( 'international standard', 'config_control_design', 1994, #95 ) ;
#25 = PERSON_AND_ORGANIZATION ( #99, #156 ) ;
#26 = APPROVAL ( #114, 'UNSPECIFIED' ) ;
#27 = DIRECTION ( 'NONE',  ( -3.491481338843133355E-15, 1.224646799147353454E-16, -1.000000000000000000 ) ) ;
#28 = PERSON_AND_ORGANIZATION ( #99, #156 ) ;
#29 = FACE_BOUND ( 'NONE', #208, .T. ) ;
#30 = CARTESIAN_POINT ( 'NONE',  ( 4.085033166446466404E-13, -1.432836755002403758E-14, 117.0000000000000000 ) ) ;
#31 = PERSON_AND_ORGANIZATION ( #99, #156 ) ;
#32 = CONICAL_SURFACE ( 'NONE', #167, 2.400000000000002576, 0.7853981633974450594 ) ;
#33 = PLANE ( 'NONE',  #92 ) ;
#34 = COORDINATED_UNIVERSAL_TIME_OFFSET ( 1, 0, .AHEAD. ) ;
#35 = ADVANCED_FACE ( 'NONE', ( #239, #38 ), #224, .T. ) ;
#36 = CARTESIAN_POINT ( 'NONE',  ( 5.586370142149013368E-14, 4.199999999999999289, 16.00000000000000000 ) ) ;
#37 = ADVANCED_FACE ( 'NONE', ( #44 ), #18, .F. ) ;
#38 = FACE_OUTER_BOUND ( 'NONE', #93, .T. ) ;
#39 = AXIS2_PLACEMENT_3D ( 'NONE', #109, #231, #225 ) ;
#40 = AXIS2_PLACEMENT_3D ( 'NONE', #194, #7, #72 ) ;
#41 = CC_DESIGN_PERSON_AND_ORGANIZATION_ASSIGNMENT ( #213, #195, ( #49 ) ) ;
#42 = CALENDAR_DATE ( 2021, 3, 12 ) ;
#43 = DIRECTION ( 'NONE',  ( -3.491481338843133355E-15, 1.224646799147353454E-16, -1.000000000000000000 ) ) ;
#44 = FACE_OUTER_BOUND ( 'NONE', #228, .T. ) ;
#45 = FACE_OUTER_BOUND ( 'NONE', #90, .T. ) ;
#46 = CIRCLE ( 'NONE', #61, 2.400000000000002576 ) ;
#47 = PRODUCT_RELATED_PRODUCT_CATEGORY ( 'detail', '', ( #192 ) ) ;
#48 = EDGE_LOOP ( 'NONE', ( #190 ) ) ;
#49 = PRODUCT_DEFINITION_FORMATION_WITH_SPECIFIED_SOURCE ( 'ANY', '', #192, .NOT_KNOWN. ) ;
#50 = DESIGN_CONTEXT ( 'detailed design', #95, 'design' ) ;
#51 = ORIENTED_EDGE ( 'NONE', *, *, #230, .T. ) ;
#52 = ORIENTED_EDGE ( 'NONE', *, *, #20, .F. ) ;
#53 = AXIS2_PLACEMENT_3D ( 'NONE', #139, #201, #242 ) ;
#54 = LOCAL_TIME ( 7, 48, 38.00000000000000000, #176 ) ;
#55 = DIRECTION ( 'NONE',  ( -3.491481338843133355E-15, 1.224646799147353454E-16, -1.000000000000000000 ) ) ;
#56 = APPROVAL_DATE_TIME ( #75, #104 ) ;
#57 = EDGE_CURVE ( 'NONE', #82, #82, #179, .T. ) ;
#58 = CARTESIAN_POINT ( 'NONE',  ( 5.586370142149013368E-14, -1.959434878635765526E-15, 16.00000000000000000 ) ) ;
#59 = FACE_OUTER_BOUND ( 'NONE', #207, .T. ) ;
#60 = CC_DESIGN_PERSON_AND_ORGANIZATION_ASSIGNMENT ( #11, #125, ( #221 ) ) ;
#61 = AXIS2_PLACEMENT_3D ( 'NONE', #30, #10, #62 ) ;
#62 = DIRECTION ( 'NONE',  ( 0.0000000000000000000, 1.000000000000000000, 0.0000000000000000000 ) ) ;
#63 = CALENDAR_DATE ( 2021, 3, 12 ) ;
#64 = PRODUCT_DEFINITION ( 'UNKNOWN', '', #49, #50 ) ;
#65 = DIRECTION ( 'NONE',  ( -3.491481338843133355E-15, 1.224646799147353454E-16, -1.000000000000000000 ) ) ;
#66 =( GEOMETRIC_REPRESENTATION_CONTEXT ( 3 ) GLOBAL_UNCERTAINTY_ASSIGNED_CONTEXT ( ( #143 ) ) GLOBAL_UNIT_ASSIGNED_CONTEXT ( ( #214, #134, #215 ) ) REPRESENTATION_CONTEXT ( 'NONE', 'WORKASPACE' ) );
#67 = SHAPE_DEFINITION_REPRESENTATION ( #94, #232 ) ;
#68 = ORIENTED_EDGE ( 'NONE', *, *, #73, .F. ) ;
#69 = ORIENTED_EDGE ( 'NONE', *, *, #79, .T. ) ;
#70 = EDGE_LOOP ( 'NONE', ( #226 ) ) ;
#71 = AXIS2_PLACEMENT_3D ( 'NONE', #132, #193, #131 ) ;
#72 = DIRECTION ( 'NONE',  ( 1.000000000000000000, 0.0000000000000000000, 0.0000000000000000000 ) ) ;
#73 = EDGE_CURVE ( 'NONE', #8, #8, #87, .T. ) ;
#74 = ORIENTED_EDGE ( 'NONE', *, *, #20, .T. ) ;
#75 = DATE_AND_TIME ( #162, #191 ) ;
#76 = VERTEX_POINT ( 'NONE', #13 ) ;
#77 = ORIENTED_EDGE ( 'NONE', *, *, #230, .F. ) ;
#78 = DATE_AND_TIME ( #163, #185 ) ;
#79 = EDGE_CURVE ( 'NONE', #76, #76, #206, .T. ) ;
#80 = VERTEX_POINT ( 'NONE', #117 ) ;
#81 = APPROVAL_ROLE ( '' ) ;
#82 = VERTEX_POINT ( 'NONE', #115 ) ;
#83 = DIRECTION ( 'NONE',  ( -3.491481338843133355E-15, 1.224646799147353454E-16, -1.000000000000000000 ) ) ;
#84 = CC_DESIGN_DATE_AND_TIME_ASSIGNMENT ( #22, #148, ( #64 ) ) ;
#85 = CARTESIAN_POINT ( 'NONE',  ( 4.064084278413407478E-13, -1.425488874207519270E-14, 116.4000000000000057 ) ) ;
#86 = CARTESIAN_POINT ( 'NONE',  ( 4.085033166446466404E-13, -1.432836755002403758E-14, 117.0000000000000000 ) ) ;
#87 = CIRCLE ( 'NONE', #238, 4.200000000000000178 ) ;
#88 = DIRECTION ( 'NONE',  ( -4.275831445896959482E-31, -1.000000000000000000, -1.224646799147353454E-16 ) ) ;
#89 = AXIS2_PLACEMENT_3D ( 'NONE', #204, #65, #202 ) ;
#90 = EDGE_LOOP ( 'NONE', ( #160 ) ) ;
#91 = ORIENTED_EDGE ( 'NONE', *, *, #57, .T. ) ;
#92 = AXIS2_PLACEMENT_3D ( 'NONE', #210, #96, #183 ) ;
#93 = EDGE_LOOP ( 'NONE', ( #68 ) ) ;
#94 = PRODUCT_DEFINITION_SHAPE ( 'NONE', 'NONE',  #64 ) ;
#95 = APPLICATION_CONTEXT ( 'configuration controlled 3d designs of mechanical parts and assemblies' ) ;
#96 = DIRECTION ( 'NONE',  ( -3.491481338843133355E-15, 1.224646799147353454E-16, -1.000000000000000000 ) ) ;
#97 = COORDINATED_UNIVERSAL_TIME_OFFSET ( 1, 0, .AHEAD. ) ;
#98 = VERTEX_POINT ( 'NONE', #103 ) ;
#99 = PERSON ( 'UNSPECIFIED', 'UNSPECIFIED', 'UNSPECIFIED', ('UNSPECIFIED'), ('UNSPECIFIED'), ('UNSPECIFIED') ) ;
#100 = ADVANCED_FACE ( 'NONE', ( #154 ), #17, .T. ) ;
#101 = DIRECTION ( 'NONE',  ( 0.0000000000000000000, 1.000000000000000000, 0.0000000000000000000 ) ) ;
#102 = DATE_AND_TIME ( #42, #145 ) ;
#103 = CARTESIAN_POINT ( 'NONE',  ( 0.0000000000000000000, 3.699999999999998845, 0.0000000000000000000 ) ) ;
#104 = APPROVAL ( #233, 'UNSPECIFIED' ) ;
#105 = CARTESIAN_POINT ( 'NONE',  ( 5.586370142149013368E-14, -1.959434878635765526E-15, 16.00000000000000000 ) ) ;
#106 = CONICAL_SURFACE ( 'NONE', #227, 3.699999999999998845, 0.7853981633974503884 ) ;
#107 = FACE_BOUND ( 'NONE', #48, .T. ) ;
#108 = CC_DESIGN_PERSON_AND_ORGANIZATION_ASSIGNMENT ( #31, #118, ( #49 ) ) ;
#109 = CARTESIAN_POINT ( 'NONE',  ( 5.586370142149013368E-14, 3.149495543589899882E-32, 16.00000000000000000 ) ) ;
#110 = EDGE_LOOP ( 'NONE', ( #74 ) ) ;
#111 = ORIENTED_EDGE ( 'NONE', *, *, #220, .T. ) ;
#112 = AXIS2_PLACEMENT_3D ( 'NONE', #219, #140, #240 ) ;
#113 = APPROVAL_PERSON_ORGANIZATION ( #222, #12, #16 ) ;
#114 = APPROVAL_STATUS ( 'not_yet_approved' ) ;
#115 = CARTESIAN_POINT ( 'NONE',  ( 6.312060910855608096E-14, 2.999999999999985789, 18.07846096908266986 ) ) ;
#116 = PERSON_AND_ORGANIZATION ( #99, #156 ) ;
#117 = CARTESIAN_POINT ( 'NONE',  ( 5.586370142149013368E-14, 4.199999999999999289, 16.00000000000000000 ) ) ;
#118 = PERSON_AND_ORGANIZATION_ROLE ( 'design_supplier' ) ;
#119 = DIRECTION ( 'NONE',  ( 0.0000000000000000000, 1.000000000000000000, 0.0000000000000000000 ) ) ;
#120 = AXIS2_PLACEMENT_3D ( 'NONE', #85, #15, #21 ) ;
#121 = AXIS2_PLACEMENT_3D ( 'NONE', #58, #27, #198 ) ;
#122 = CARTESIAN_POINT ( 'NONE',  ( 1.745740669421565889E-15, 4.200000000000000178, 0.4999999999999997780 ) ) ;
#123 = APPLICATION_PROTOCOL_DEFINITION ( 'international standard', 'config_control_design', 1994, #138 ) ;
#124 = CARTESIAN_POINT ( 'NONE',  ( -1.582057634981874457E-30, 5.549111195848874244E-32, -4.531193156845206201E-16 ) ) ;
#125 = PERSON_AND_ORGANIZATION_ROLE ( 'classification_officer' ) ;
#126 = CIRCLE ( 'NONE', #174, 3.699999999999998845 ) ;
#127 = APPROVAL_STATUS ( 'not_yet_approved' ) ;
#128 = EDGE_LOOP ( 'NONE', ( #51 ) ) ;
#129 = CC_DESIGN_APPROVAL ( #104, ( #64 ) ) ;
#130 = ADVANCED_FACE ( 'NONE', ( #59, #107 ), #32, .T. ) ;
#131 = DIRECTION ( 'NONE',  ( 4.275831445896959482E-31, 1.000000000000000000, 1.224646799147353454E-16 ) ) ;
#132 = CARTESIAN_POINT ( 'NONE',  ( 0.0000000000000000000, 0.0000000000000000000, 0.0000000000000000000 ) ) ;
#133 = COORDINATED_UNIVERSAL_TIME_OFFSET ( 1, 0, .AHEAD. ) ;
#134 =( NAMED_UNIT ( * ) PLANE_ANGLE_UNIT ( ) SI_UNIT ( $, .RADIAN. ) );
#135 = MECHANICAL_CONTEXT ( 'NONE', #138, 'mechanical' ) ;
#136 = CIRCLE ( 'NONE', #216, 4.200000000000000178 ) ;
#137 = FACE_OUTER_BOUND ( 'NONE', #205, .T. ) ;
#138 = APPLICATION_CONTEXT ( 'configuration controlled 3d designs of mechanical parts and assemblies' ) ;
#139 = CARTESIAN_POINT ( 'NONE',  ( 0.0000000000000000000, 0.0000000000000000000, 0.0000000000000000000 ) ) ;
#140 = DIRECTION ( 'NONE',  ( 3.491481338843133355E-15, -1.224646799147353454E-16, 1.000000000000000000 ) ) ;
#141 = DATE_AND_TIME ( #63, #229 ) ;
#142 = EDGE_LOOP ( 'NONE', ( #69 ) ) ;
#143 = UNCERTAINTY_MEASURE_WITH_UNIT (LENGTH_MEASURE( 1.000000000000000082E-05 ), #214, 'distance_accuracy_value', 'NONE');
#144 = EDGE_LOOP ( 'NONE', ( #77 ) ) ;
#145 = LOCAL_TIME ( 7, 48, 38.00000000000000000, #34 ) ;
#146 = ORIENTED_EDGE ( 'NONE', *, *, #73, .T. ) ;
#147 = PERSON_AND_ORGANIZATION ( #99, #156 ) ;
#148 = DATE_TIME_ROLE ( 'creation_date' ) ;
#149 = AXIS2_PLACEMENT_3D ( 'NONE', #105, #14, #155 ) ;
#150 = APPROVAL_PERSON_ORGANIZATION ( #25, #26, #9 ) ;
#151 = APPROVAL_DATE_TIME ( #78, #26 ) ;
#152 = CALENDAR_DATE ( 2021, 3, 12 ) ;
#153 = FACE_OUTER_BOUND ( 'NONE', #161, .T. ) ;
#154 = FACE_OUTER_BOUND ( 'NONE', #6, .T. ) ;
#155 = DIRECTION ( 'NONE',  ( 0.0000000000000000000, 1.000000000000000000, 0.0000000000000000000 ) ) ;
#156 = ORGANIZATION ( 'UNSPECIFIED', 'UNSPECIFIED', '' ) ;
#157 = FACE_OUTER_BOUND ( 'NONE', #70, .T. ) ;
#158 = DIRECTION ( 'NONE',  ( -3.491481338843133355E-15, 1.224646799147353454E-16, -1.000000000000000000 ) ) ;
#159 = CLOSED_SHELL ( 'NONE', ( #35, #100, #200, #172 ) ) ;
#160 = ORIENTED_EDGE ( 'NONE', *, *, #57, .F. ) ;
#161 = EDGE_LOOP ( 'NONE', ( #23 ) ) ;
#162 = CALENDAR_DATE ( 2021, 3, 12 ) ;
#163 = CALENDAR_DATE ( 2021, 3, 12 ) ;
#164 = CARTESIAN_POINT ( 'NONE',  ( 5.586370142149013368E-14, -1.959434878635765526E-15, 16.00000000000000000 ) ) ;
#165 = DATE_TIME_ROLE ( 'classification_date' ) ;
#166 = DIRECTION ( 'NONE',  ( -3.491481338843133355E-15, 1.224646799147353454E-16, -1.000000000000000000 ) ) ;
#167 = AXIS2_PLACEMENT_3D ( 'NONE', #86, #43, #243 ) ;
#168 = CC_DESIGN_DATE_AND_TIME_ASSIGNMENT ( #102, #165, ( #221 ) ) ;
#169 = CARTESIAN_POINT ( 'NONE',  ( 1.745740669421564114E-15, -6.123233995736758640E-17, 0.4999999999999992784 ) ) ;
#170 = DIRECTION ( 'NONE',  ( 3.491481338843133355E-15, -1.224646799147353454E-16, 1.000000000000000000 ) ) ;
#171 = FACE_BOUND ( 'NONE', #144, .T. ) ;
#172 = ADVANCED_FACE ( 'NONE', ( #137, #171 ), #106, .T. ) ;
#173 = CC_DESIGN_SECURITY_CLASSIFICATION ( #221, ( #49 ) ) ;
#174 = AXIS2_PLACEMENT_3D ( 'NONE', #124, #83, #235 ) ;
#175 = APPROVAL_PERSON_ORGANIZATION ( #116, #104, #81 ) ;
#176 = COORDINATED_UNIVERSAL_TIME_OFFSET ( 1, 0, .AHEAD. ) ;
#177 = SECURITY_CLASSIFICATION_LEVEL ( 'unclassified' ) ;
#178 = ADVANCED_FACE ( 'NONE', ( #157 ), #223, .F. ) ;
#179 = CIRCLE ( 'NONE', #203, 2.999999999999988010 ) ;
#180 = FACE_OUTER_BOUND ( 'NONE', #128, .T. ) ;
#181 = VERTEX_POINT ( 'NONE', #211 ) ;
#182 = MANIFOLD_SOLID_BREP ( 'Corps-Déplacer/Copier1[2]', #159 ) ;
#183 = DIRECTION ( 'NONE',  ( 4.275831445896959482E-31, 1.000000000000000000, 1.224646799147353454E-16 ) ) ;
#184 = MANIFOLD_SOLID_BREP ( 'Corps-Déplacer/Copier1[1]', #2 ) ;
#185 = LOCAL_TIME ( 7, 48, 38.00000000000000000, #97 ) ;
#186 = DIRECTION ( 'NONE',  ( 4.585547486636275424E-31, 1.000000000000000000, 1.290716872006552780E-16 ) ) ;
#187 = CARTESIAN_POINT ( 'NONE',  ( -1.582057634981874457E-30, 5.549111195848874244E-32, -4.531193156845206201E-16 ) ) ;
#188 = FACE_OUTER_BOUND ( 'NONE', #142, .T. ) ;
#189 = CIRCLE ( 'NONE', #149, 4.200000000000000178 ) ;
#190 = ORIENTED_EDGE ( 'NONE', *, *, #5, .T. ) ;
#191 = LOCAL_TIME ( 7, 48, 38.00000000000000000, #133 ) ;
#192 = PRODUCT ( '342272', '342272', '', ( #135 ) ) ;
#193 = DIRECTION ( 'NONE',  ( -3.491481338843133355E-15, 1.224646799147353454E-16, -1.000000000000000000 ) ) ;
#194 = CARTESIAN_POINT ( 'NONE',  ( 0.0000000000000000000, 0.0000000000000000000, 0.0000000000000000000 ) ) ;
#195 = PERSON_AND_ORGANIZATION_ROLE ( 'creator' ) ;
#196 = APPROVAL_DATE_TIME ( #141, #12 ) ;
#197 = COORDINATED_UNIVERSAL_TIME_OFFSET ( 1, 0, .AHEAD. ) ;
#198 = DIRECTION ( 'NONE',  ( 0.0000000000000000000, 1.000000000000000000, 0.0000000000000000000 ) ) ;
#199 = ADVANCED_FACE ( 'NONE', ( #45, #188 ), #19, .T. ) ;
#200 = ADVANCED_FACE ( 'NONE', ( #180 ), #33, .T. ) ;
#201 = DIRECTION ( 'NONE',  ( -3.491481338843133355E-15, 1.224646799147353454E-16, -1.000000000000000000 ) ) ;
#202 = DIRECTION ( 'NONE',  ( 4.275831445896959482E-31, 1.000000000000000000, 1.224646799147353454E-16 ) ) ;
#203 = AXIS2_PLACEMENT_3D ( 'NONE', #212, #55, #101 ) ;
#204 = CARTESIAN_POINT ( 'NONE',  ( 4.085033166446466404E-13, 1.799711739194210245E-32, 117.0000000000000000 ) ) ;
#205 = EDGE_LOOP ( 'NONE', ( #146 ) ) ;
#206 = CIRCLE ( 'NONE', #120, 3.000000000000001776 ) ;
#207 = EDGE_LOOP ( 'NONE', ( #4 ) ) ;
#208 = EDGE_LOOP ( 'NONE', ( #91 ) ) ;
#209 = PERSON_AND_ORGANIZATION_ROLE ( 'creator' ) ;
#210 = CARTESIAN_POINT ( 'NONE',  ( -7.910288174909372284E-31, 2.774555597924437122E-32, -2.265596578422603100E-16 ) ) ;
#211 = CARTESIAN_POINT ( 'NONE',  ( 4.085033166446466404E-13, 2.399999999999987921, 117.0000000000000000 ) ) ;
#212 = CARTESIAN_POINT ( 'NONE',  ( 6.312060910855608096E-14, -2.213972935929745375E-15, 18.07846096908266986 ) ) ;
#213 = PERSON_AND_ORGANIZATION ( #99, #156 ) ;
#214 =( LENGTH_UNIT ( ) NAMED_UNIT ( * ) SI_UNIT ( .MILLI., .METRE. ) );
#215 =( NAMED_UNIT ( * ) SI_UNIT ( $, .STERADIAN. ) SOLID_ANGLE_UNIT ( ) );
#216 = AXIS2_PLACEMENT_3D ( 'NONE', #164, #166, #119 ) ;
#217 = CC_DESIGN_APPROVAL ( #12, ( #221 ) ) ;
#218 = CC_DESIGN_PERSON_AND_ORGANIZATION_ASSIGNMENT ( #28, #236, ( #192 ) ) ;
#219 = CARTESIAN_POINT ( 'NONE',  ( 5.586370142149013368E-14, 3.149495543589899882E-32, 16.00000000000000000 ) ) ;
#220 = EDGE_CURVE ( 'NONE', #80, #80, #136, .T. ) ;
#221 = SECURITY_CLASSIFICATION ( '', '', #177 ) ;
#222 = PERSON_AND_ORGANIZATION ( #99, #156 ) ;
#223 = PLANE ( 'NONE',  #89 ) ;
#224 = CYLINDRICAL_SURFACE ( 'NONE', #53, 4.200000000000000178 ) ;
#225 = DIRECTION ( 'NONE',  ( -4.275831445896959482E-31, -1.000000000000000000, -1.224646799147353454E-16 ) ) ;
#226 = ORIENTED_EDGE ( 'NONE', *, *, #5, .F. ) ;
#227 = AXIS2_PLACEMENT_3D ( 'NONE', #187, #170, #88 ) ;
#228 = EDGE_LOOP ( 'NONE', ( #111 ) ) ;
#229 = LOCAL_TIME ( 7, 48, 38.00000000000000000, #197 ) ;
#230 = EDGE_CURVE ( 'NONE', #98, #98, #126, .T. ) ;
#231 = DIRECTION ( 'NONE',  ( 3.491481338843133355E-15, -1.224646799147353454E-16, 1.000000000000000000 ) ) ;
#232 = ADVANCED_BREP_SHAPE_REPRESENTATION ( '342272', ( #184, #182, #40 ), #66 ) ;
#233 = APPROVAL_STATUS ( 'not_yet_approved' ) ;
#234 = ADVANCED_FACE ( 'NONE', ( #29, #153 ), #3, .T. ) ;
#235 = DIRECTION ( 'NONE',  ( 4.275831445896959482E-31, 1.000000000000000000, 1.224646799147353454E-16 ) ) ;
#236 = PERSON_AND_ORGANIZATION_ROLE ( 'design_owner' ) ;
#237 = VERTEX_POINT ( 'NONE', #36 ) ;
#238 = AXIS2_PLACEMENT_3D ( 'NONE', #169, #158, #186 ) ;
#239 = FACE_OUTER_BOUND ( 'NONE', #110, .T. ) ;
#240 = DIRECTION ( 'NONE',  ( -4.275831445896959482E-31, -1.000000000000000000, -1.224646799147353454E-16 ) ) ;
#241 = CC_DESIGN_APPROVAL ( #26, ( #49 ) ) ;
#242 = DIRECTION ( 'NONE',  ( 4.275831445896960358E-31, 1.000000000000000000, 1.224646799147353454E-16 ) ) ;
#243 = DIRECTION ( 'NONE',  ( 0.0000000000000000000, 1.000000000000000000, 0.0000000000000000000 ) ) ;
ENDSEC;
END-ISO-10303-21;
